Warum werde ich nicht satt? in ukulele acoustic version might be one of the perfect music you loved. Not only enjoying the song but you can play “Warum werde ich nicht satt? by Die Toten Hosen” using ukulele too. Yup .. this song by may also be played by that instrument. But, before that, you need to know its ukulele chords.

Whether you are looking for Warum werde ich nicht satt? ukulele chords, you’ve come to the perfect place.

Yups, ukulele is not easy to study in the beginning, but gets easier the longer you stick with it. The more you practice, the smooth ukulele will feel to play that music.

“Warum werde ich nicht satt?” ukulele chords has rhythm and included in “Unsterblich (1999)” album.

Warum werde ich nicht satt? by Die Toten Hosen ukulele Chords

song Warum werde ich nciht satt?
interpret Die Toten Hosen
capo 0
album “Unsterblich”
setting Standart

chords to use:

[C] [C#] [C#m] [D] [F#m] [A] [Hm]


e|--3--|--4--|--4--|--5--|--2--|--5--|--2--|
B|--5--|--6--|--5--|--7--|--2--|--5--|--3--|
G|--5--|--6--|--6--|--7--|--2--|--6--|--4--|
D|--5--|--6--|--6--|--7--|--4--|--7--|--4--|
A|--3--|--4--|--4--|--5--|--4--|--7--|--2--|
E|--3--|--4--|--4--|--5--|--2--|--5--|--2--|

intro


e|-------------------------------------------------------------------|
B|---------7---------7---------7---------7---------------------------|
G|-6-6-5-6---6-6-5-6---7-7-6-7---7-7-6-7---10-7-10-7-7-7-9-5-9-5-5-5-|
D|-------------------------------------------------------------------|
A|-------------------------------------------------------------------|
E|-------------------------------------------------------------------|
e|-----------------------|
B|-7---------------------|
G|------------------2--6-|
D|-4----------------4--6-|
A|---4-3-2-1--------4--4-|
E|-----------2-1-2--2--4-|

verse

Was f[F#m]r `ne blde Frage, ob das w[Hm]irklich ntig ist
Ich h[F#m]abe halt zwei Autos weil mir e[C#]ins zu wenig ist
Sie passen b[F#m]eide in meine Garage, fr mich i[Hm]st das Grund genug
Was soll ich [F#m]sonst in diese Garage neben meiner R[C#]iesen-Villa tun
Die Ger[D]te fr den Swimmingpool liegen s[C#m]chon im Gartenhaus
und die Spi[D]elzeugeisenbahn ist im Ke[C#m]ller aufgebaut

Hey Hey Hoh Hoh


----------

1. guitar


e|-------------------------------------------------------------------|
B|---------7---------7---------7---------7---------------------------|
G|-6-6-5-6---6-6-5-6---7-7-6-7---7-7-6-7---10-7-10-7-7-7-9-5-9-5-5-5-|
D|-------------------------------------------------------------------|
A|-------------------------------------------------------------------|
E|-------------------------------------------------------------------|

2. guitar

[F#m] [F#m] [Hm] [Hm] [F#m] [C#]


---------

verse 2

Jeden S[F#m]onntag zhle ich mein Geld und es t[Hm]ut mir wirklich gut
zu w[F#m]issen wieviel ich wert bin, und ich bin gr[C#]ad hoch im Kurs
Ich hatte m[F#m]ehr Glck als die Meisten, hebe imme[Hm]r fett gelebt
Und wenn ich [F#m]wirklich etwas wollte, h[C#]ab’ ich’s auch gekriegt

chorus (Powerchords)

[F#m]
Warum werde ich nicht satt? (4x)

[F#m]Warum werde ich nicht satt? (2x)
[A]Warum werde ich nicht sat[C]t? (2x)


----------

1. guitar


e|-------------------------------------------------------------------|
B|---------7---------7---------7---------7---------------------------|
G|-6-6-5-6---6-6-5-6---7-7-6-7---7-7-6-7---10-7-10-7-7-7-9-5-9-5-5-5-|
D|-------------------------------------------------------------------|
A|-------------------------------------------------------------------|
E|-------------------------------------------------------------------|

2. guitar

[F#m] [F#m] [Hm] [Hm] [F#m] [C#]


---------

verse 3

Ich bin d[F#m]ankbar fr mein Leben, habe [Hm]vieles mitgenommen
Aus a[F#m]llen Abenteuern immer h[C#]eil heraus gekommen
J[F#m]ede Mange Parties und D[Hm]rogen sowieso
und a[F#m]uch mit den Frauen war m[C#]eistens etwas los
Ich hab w[D]irklich tolle Freunde, man k[C#m]mmert sich sehr nett
und auf dem F[D]riedhof ist der beste Platz r[C#m]eserviert fr mich

chorus

[F#m]
Warum werde ich nicht satt? (4x)

[F#m]Warum werde ich nicht satt? (2x)
[A]Warum werde ich nicht sat[C]t? (2x)
[F#m]Warum werde ich nicht satt? (2x)
[A]Warum werde ich nicht sat[C]t? (2x)


e|---------------------|
B|---------7---------7-|
G|-6-6-5-6---6-6-5-6---|
D|---------------------|
A|---------------------|
E|---------------------|

[F#m]Warum werde ich nicht satt? (2x)


e|---------------------|
B|---------7---------7-|
G|-7-7-6-7---7-7-6-7---|
D|---------------------|
A|---------------------|
E|---------------------|

[A]Warum werde ich nicht sat[C]t? (2x)


e|------------------------------------------------------|
B|------------------------------------------------------|
G|-10-7-10-7-7-7-9-5-9-5-5-5-10-7-7-10-7-7-7--7-7-7-7-7-|
D|------------------------------------------------------|
A|------------------------------------------------------|
E|------------------------------------------------------|

[F#m]Warum werden wir nicht satt? (2x)
[A]Warum werden wir nicht sa[C]tt? (2x)
[F#m]Warum werden wir nicht satt? (2x)

tabbed by Master_Pi
—————–

If you wanna learn Die Toten Hosen Warum werde ich nicht satt? ukulele chords, the most crucial basic ukulele chords to understand are C chord, D chord, G chord, and Em chord. These set you up to play a a lot of musics, and each of them is easy to learn.

By the way, you can also search for another musical genres, including jazz ukulele chords, country music ukulele chords, pop ukulele chords, world music ukulele chords, and rock ukulele chords here.
Want to play another ukulele chords? Simple .. just click search button in this place, you may find it by song title or by the artist.
Enjoy!