‘Til Death in guitar acoustic version may be one of your liked song. Not only enjoying the music but you can play “‘Til Death by Obituary” using guitar too. Yeah .. this song by may also be played by that device. But, before that, you need to understand its guitar chords.

Whether you are looking for ‘Til Death guitar chords, you have visit to the right website.

Yeah,Ya, guitar is not easy to learn in the beginning, but gets easier the more time you stick with it. The more you proceeding, the smooth guitar will feel to play the music.

“‘Til Death” guitar chords has rhythm and included in “Slowly We Rot (1989)” album.

‘Til Death by Obituary Guitar Chords

Date: Tue, 12 Nov 1996 17:44:25 -0500
From: Jon Sanford
Subject: correction of obituary’s ’til death

OBITUARY-greatest band anywhere
‘TIL DEATH
from SLOWLY WE ROT
transcribed by JON SANFORD (JON @CSUOHIO.EDU)

NOTE. IF I PUT SOMETHING IN (), THAT MEANS PLAY THAT
NOTE AS DIRECTED. FOR EXAMPLE:


20000023----(1)1ST----(2)2ND

TIME TIME
PLAY THE (1) ALONG WITH THE 20000023, THEN
PLAY THE (2) ALONG WITH THE 20000023.

THIS ALBUM IS DONE IN THE TRADITIONAL LATE 80’S “TREBLE”
DEATH METAL WAY. THE GUITARS ARE ALMOST NONEXISTENT.
BUT THIS ALBUM IS STILL VERY COOL. ONE OF THE BEST AROUND.
HOWEVER, I FEEL THE END COMPLETE IS THE BEST.
AS ALWAYS, PALM MUTE AS NEEDED, AND USE SOME DISTORTION.

RIFFS:

[#1]


E -------------------------------------------------------
B -------------------------------------------------------
G -------------------------------------------------------
D -------------------------------------------------------
A -------------------------------------------------------
E -200000300000400000432---------------------------------

[#2]


E -------------------------------------------------------
B -------------------------------------------------------
G -------------------------------------------------------
D -------------------------------------------------------
A -------------------------------------------------------
E -2-000-3-000-4-000-4-3-2-------------------------------

[#3]


E -------------------------------------------------------
B -------------------------------------------------------
G -------------------------------------------------------
D -------------------4-3-5-------------------------------
A -4-----4-----4-----2-1-3-------------------------------
E -2-xxx-2-xxx-2-xxx-------------------------------------

[#4]


E -------------------------------------------------------
B -------------------------------------------------------
G -------------------------------------------------------
D -------------------------------------------------------
A -------------------------------------------------------
E -44444444-77777777-44444444-88888888-------------------

[#5]


E -------------------------------------------------------
B -------------------------------------------------------
G -------------------------------------------------------
D -------------------------------------------------------
A -3-3-7/6/7-------------------3-3-6/5/6-----------------
E -1-1-5/4/5-2222222222222222--1-1-4/3/4-1111111111111111

FILL 1


E -------------------------------------------------------
B -------------------------------------------------------
G -------------------------------------------------------
D -------------------------------------------------------
A -3-------4---------------------------------------------
E -1-------2---------------------------------------------

[#6]


E -------------------------------------------------------
B -------------------------------------------------------
G -------------------------------------------------------
D ------------------------------(3)------------------------
A ---9/10---4/5---9/10---4/5----(1)1ST-----(1)2ND----------
E -0-7/8--0-2/3-0-7/8--0-2/3-00----TIME----(1)-TIME--------

[#7]


E ---------------------------THE LAST YOU PLAY THIS,-----
B ------------------------------END----------------------
G ---------------------------------THE-------------------
D ------------------------------------RIFF---------------
A -4---3---8--6---7-9-6-------------------ON--4-LET------
E -2---1---6--4---5-7-4-----------------------2-RING-----

#8


E -------------------------------------------------------
B -------------------------------------------------------
G -------------------------------------------------------

D HTTP/1.0 400 Cache Detected Error
Server: squid/1.1.10-nf/2.0.4
Date: Sat, 05 Aug 2000 17:52:13 GMT
Expires: Sat, 05 Aug 2000 17:54:13 GMT
Last-Modified: Sat, 05 Aug 2000 17:52:13 GMT
Content-Type: text/html
Content-Length: 1644

CleanWeb: Site Blocked

“‘”‘

Blocked Site

You tried to access http://mud.leaseyourmind.com/gtab/o/obituary/til_death.tab.
CleanWeb will not allow you to visit this site
because it encountered a blocking code type 423
(Retrieval Aborted). This means that access to http://mud.leaseyourmind.com/gtab/o/obituary/til_death.tab has been
blocked because the document contained inappropriate words. If you believe this
is in error, please
let us know.
—————–

If you wanna be master of Obituary ‘Til Death guitar chords, you should to understand the 5 major chords, C major, A major, G major, E major, and D major. The reason we take all major chords is that the minors of any of these chords just require few adjustments. Each one of those minor chords is entirely based on its major counterpart.

By the way, you can also look for another musical genres, including jazz guitar chords, country music guitar chords, pop guitar chords, world music guitar chords, and rock guitar chords here.
Looking for another guitar chords? Simple .. just use search button in this web, you may find it by song title or by the artist.
Enjoy!