The Ocean played in ukulele maybe one of your liked song. Not only hearing the music but you can play “The Ocean by U2” using ukulele too. Yes .. this song by can also be played by that instrument. But, before that, you must know its ukulele chords.

When you are searching for The Ocean ukulele chords, you have visit to the perfect place.

Yeah,Ya, ukulele is hard to master in the beginning, but gets easier the longer you stick with it. The more you proceeding, the smooth ukulele will feel to play The Ocean song.

“The Ocean” ukulele chords has rhythm and included in “Boy (1980)” album.

The Ocean by U2 ukulele Chords

The Ocean

Transcribed by Richard Averill.
E-mail me at [email protected]

Tune all strings down a semitone.
Use a very short echo and some reverb.


1|-15--|---------14--12------------------|---------------------------------|
2|-----|-----12----------------------15--|---------14----------------------|
3|-----|---------------------------------|-----12--------------------------|
4|-----|---------------------------------|-------------14------------------|
5|-----|---------------------------------|---------------------------------|
6|-----|---------------------------------|---------------------------------|

[+] [1] [+] [2] [+] [3] [+] [4] [+][1][+][2][+][3][+][4][+]


1|-----------------------------|---------------------------------|
2|-----------------------------|---------------------------------|
3|-----------------------------|---------------------------------|
4|-----------------------------|---------------------------------|
5|---------------------------------|---------------------------------|
6|---------------------------------|---------------------------------|

[1] [+] [2] [+] [3] [+] [4] [+] [1][+][2][+][3][+][4][+]
[A]


1|---------------------------------|---------------------------------|
2|---------------------------------|---------------------------------|
3|---------------------------------|---------------------------------|
4|---------------------------------|---------------------------------|
5|---------------------------------|---------------------------------|
6|---------------------------------|---------------------------------|

[1] [+] [2] [+] [3] [+] [4] [+] [1][+][2][+][3][+][4][+]
picture in grey, Dorian Gray. Just


1|-----------------------------|---------------------------------|
2|---------------------------------|---------------------------------|
3|---------------------------------|-----------------------------|
4|---------------------------------|-----------------------------|
5|---------------------------------|---------------------------------|
6|---------------------------------|---------------------------------|

[1] [+] [2] [+] [3] [+] [4] [+] [1][+][2][+][3][+][4][+]
me, by the sea. And I


1|---------------------------------|---------------------------------|
2|---------------------------------|---------------------------------|
3|---------------------------------|---------------------------------|
4|---------------------------------|---------------------------------|
5|---------------------------------|---------------------------------|
6|---------------------------------|---------------------------------|

[1] [+] [2] [+] [3] [+] [4] [+] [1][+][2][+][3][+][4][+]
felt like a star, I felt the world could go far, if they’d


1|-----------------------------|---------------------------------|
2|-----------------------------|---------------------------------|
3|-----------------------------|---------------------------------|
4|---------------------------------|-----------------------------|
5|---------------------------------|---------------------------------|
6|---------------------------------|---------------------------------|

[1] [+] [2] [+] [3] [+] [4] [+] [1][+][2][+][3][+][4][+]
listen to what I said. The sea.


1|-15------14--12------------------|-----------------------------15--|
2|-----12----------------------15--|---------13----------------------|
3|---------------------------------|-----12--------------------------|
4|---------------------------------|-------------14------------------|
5|---------------------------------|---------------------------------|
6|---------------------------------|---------------------------------|

[1] [+] [2] [+] [3] [+] [4] [+] [1][+][2][+][3][+][4][+]


1|---------14--12------------------|---------------------------------|
2|-----------------------------15--|---------13----------------------|
3|---------------------------------|-----12--------------------------|
4|---------------------------------|-------------14------------------|
5|---------------------------------|---------------------------------|
6|---------------------------------|---------------------------------|

[1] [+] [2] [+] [3] [+] [4] [+] [1][+][2][+][3][+][4][+]


1|---------14----------------------|-----------------------------|
2|-15----------15------------------|-----------------------------|
3|-----16--------------------------|-----------------------------|
4|---------------------------------|-----------------------------|
5|---------------------------------|---------------------------------|
6|---------------------------------|---------------------------------|

[1] [+] [2] [+] [3] [+] [4] [+] [1][+][2][+][3][+][4][+]
Washes my feet.


1|---------2-----------------------|---------------------------------|
2|-3-----------3-------------------|---------------------------------|
3|-----4---------------------------|---------------------------------|
4|---------------------------------|---------------------------------|
5|---------------------------------|---------------------------------|
6|---------------------------------|---------------------------------|

[1] [+] [2] [+] [3] [+] [4] [+] [1][+][2][+][3][+][4][+]
Washes my feet, aaah.


1|---------------------------------|---------------------------------|
2|---------------------------------|-12----------------------14------|
3|------------------------------13-|-------------------------14------|
4|---------------------------------|---------------------------------|
5|---------------------------------|---------------------------------|
6|---------------------------------|---------------------------------|

[1] [+] [2] [+] [3] [+] [4] [+] [1][+][2][+][3][+][4][+]
Splash the soles of my shoes.

Begin fade out…


1|---------------------------------|---------------------------------|
2|-12------10------9--h10------8---|---------------------10------9---|
3|-13------11------9--h11------9---|---------------------11------9---|
4|---------------------------------|---------------------------------|
5|---------------------------------|---------------------------------|
6|---------------------------------|---------------------------------|

[1] [+] [2] [+] [3] [+] [4] [+] [1][+][2][+][3][+][4][+]


1|---------------------------------|---------------------------------|
2|---------------------9-------7---|---------------------------------|
3|-------------------------9---7---|---------------------------------|
4|---------------------------------|---------------------------------|
5|---------------------------------|---------------------------------|
6|---------------------------------|---------------------------------|

[1] [+] [2] [+] [3] [+] [4] [+] [1][+][2][+][3][+][4][+]
…Fade out


1|---------------------------------|---------------------------------||
2|-10------------------------------|---------------------------------||
3|---------------------------------|---------------------------------||
4|---------------------------------|---------------------------------||
5|---------------------------------|---------------------------------||
6|---------------------------------|---------------------------------||

[1] [+] [2] [+] [3] [+] [4] [+] [1][+][2][+][3][+][4][+]

The Ocean

HEY U2 FANS. I’VE GOT ANOTHER GOODIE FOR YOU. THE TAB TO “THE OCEAN” FROM
THE U2 BOY ALBUM. IT’S IN STANDARD TUNING AS FAR AS I KNOW. THAT’S WHAT I
GOT FROM IT LAST NIGHT. HERE GOES:

bass enters guitar enters Gb6


E--------------|---14--------13---11-|--------------------|- --11---------
B--------------|--------11-----------|---14--------13-----|---11---------
G--------------|---------------------|--------11--------8-|---11---------
D--------------|---------------------|--------------------|---11---------
A--------------|---------------------|--------------------|--------------
E--------------|---------------------|--------------------|--------------
E-------------------------------------|--11---------------|--------------
B-------------------------------------|------11-----------|--------------
G-------------------------------------|---------11--------|--------------
D-------------------------------------|--------------11---|--------------
A-------------------------------------|-------------------|--------------
E-------------------------------------|-------------------|--------------

picture in grey, Dorian Grey just me by the sea and I felt


E-----------------------------------------------------|--11--------------
B-----------------------------------------------------|-------11---------
G-----------------------------------------------------|------------11----
D-----------------------------------------------------|------------------
A-----------------------------------------------------|------------------
E-----------------------------------------------------|------------------

like a star I thought the world could go far if they listened to what


E------------------|---14--------13---11-|-------------------------------
B------------------|--------11-----------|---14--------13----------------
G------------------|---------------------|--------11--------8------------
D-11---------------|---------------------|-------------------------------
A------------------|---------------------|-------------------------------
E------------------|---------------------|-------------------------------

I said…the Sea
[Ebm]


E---14---13---11---|---------------------|-------------13------|---11----
B------------------|---14--------13------|---14---11--------14-|---11----
G------------------|--------11--------8--|---------------------|---11----
D------------------|---------------------|---------------------|---------
A------------------|---------------------|---------------------|---------
E------------------|---------------------|---------------------|---------

washes……my feet
[H]


E------------------|-----------------------------------------------------
B---2-------6---2--|------------------------------8----11----------------
G-------3----------|-----------------------------------------------------
D------------------|-----------------------------------------------------
A------------------|-----------------------------------------------------
E------------------|-----------------------------------------------------

washes my feet ahhh… splashes the soul of my shoes
fade out—


E--------------------------|--------------|---------------|--------------
B---13---11---9---8/9------|--------------|---------------|--------------
G-----------------------11-|---12/13---12-|---12---8---10-|---13---15-12-
D--------------------------|--------------|---------------|--------------
A--------------------------|--------------|---------------|--------------
E--------------------------|--------------|---------------|--------------

THE H ABOVE THE LAST STANZA OF THE SONG MEANS TO HAMMER-ON. THE SLASHES
BETWEEN THE ENDING NOTES MEANS A LEGATTO SLIDE (YOU SOUND ONLY THE FIRST
NOTE WITH THE PICK). HEY DUDES. KNOCK YOURSELVES OUT.

THE GUITAR MAN

+ACI-The Ocean+ACI- by U2 from BOY
(Played with a flanger)


e - - - - - - - - - - - - - - - - - - - - - - - - - - - - - - - - - - -
A - - - - - - - - - - - - - - - - - - - - - - - - - - - - - - - - - - -
D- - - - - - - - - - - - - - - - - - - - - - - - - - - - - - - - - - -
G- - - - - - 4- - - - - - - 4- - - - - - - 4- - - - - - - 4- - - -
B- - - - 2- - - 2- - - 2- - - 2- - - 2- - - 2- - - 2- - - 0- -
E - -0 - - - - - - -0 - - - - - - -0 - - - - - - -0 - - - - - - - -

After this it’s G Major played on the 3rd fret (barre chord). This is played
about 8 times, and then the other guitar enters.

Hope this helps
Thanks again for the great website
Steven Carton
—————–

If you wanna learn U2 The Ocean ukulele chords, the most crucial basic ukulele chords to know are C chord, D chord, G chord, and Em chord. These set you up to play a a lot of musics, and each of them is easy to learn.

For your info, you can also search for another musical genres, including jazz ukulele chords, country music ukulele chords, pop ukulele chords, world music ukulele chords, and rock ukulele chords in this website.
Searching for another ukulele chords? Simple .. just use search menu in this place, you may search it by song title or by the artist.
Have Fun!