Snot in guitar acoustic version maybe one of the perfect music you liked. Not only hearing the song but you can play “Snot by Snot” using guitar too. Yup .. this music by may also be played by that instrument. But, before that, you need to know its guitar chords.

If you are searching for Snot guitar chords, you have come to the perfect site.

Yups, guitar is not easy to learn in the beginning, but gets easier the longer you stick with it. The more you proceeding, the smooth guitar will feel to play the song.

“Snot” guitar chords has rhythm and included in “Other Songs” album.

Snot by Snot Guitar Chords

written by snot
tuning from me to you:
[C#] [G#] [C#] [F#] [A#] [D#]
the record the people!

Intro/verse
Gtr 1. w/ Wah


1--------------------
2--------------------
3--------------------
4--------2---4---5---
5--2/4-4---4---4---4-
6--------------------

Gtr 2.


1------- 1-----------
2------- 2-----------
3-7--7-7 3-7-x7-7-7-7
4------- X3 4---x-------
5-5--5-5 5-5-x5-5-5-5
6------- 6-----------

Chorus


1--------------------- 1-------------------------
2--------------------- 2-------------------------
3-----------5--------- 3-----------5-------------
4-0-00-xx-355-0-00-553 X3 4-0-00-xx-355-------------
5-0-00-xx-353-0-00-553 5-0-00-xx-353-3-----------
6-0-00-xx-35--0-00-553 6-0-00-xx-35----5--4-2-4-5

verse

chorus

verse

bridge


1------------- -------
2------------- -------
3------------- -7--7-7
4------------- X10 -------
5-3----------- -5--5-5
6---5--4-2-4-5 -------

Drum solo

Enter Bass

Add Gtr 2 from intro
then and Gtr 1

Chorus

bridge

you done!
—————–

If you wanna study Snot Snot guitar chords, you should to understand the 5 major chords, C major, A major, G major, E major, and D major. The reason we use all major chords is that the minors of any of these chords only require tiny adjustments. Every of those minor chords is perfectly based on its major counterpart.

Btw, you can also find another musical genres, including jazz guitar chords, country music guitar chords, pop guitar chords, world music guitar chords, and rock guitar chords here.
Looking for another guitar chords? Simple .. just click search menu in this site, you can find it by song title or by the artist.
Enjoy!