Smile Pretty for the Devil played in guitar might be one of your liked music. Not only hearing the song but you can play “Smile Pretty for the Devil by Children of Bodom” using guitar too. Yup .. this song by can also be played by that device. But, first thing, you must know its guitar chords.

If you are looking for Smile Pretty for the Devil guitar chords, you have visit to the best place.

Yups, guitar is tough to study in the beginning, but gets easier the more time you stick with it. The more you proceeding, the simple guitar will feel to play that song.

“Smile Pretty for the Devil” guitar chords has rhythm and included in “Blooddrunk (2008)” album.

Smile Pretty for the Devil by Children of Bodom Guitar Chords

Smile Pretty For The Devil – Children Of Bodom

Tuning:Tune down 1 step
[D] [G] [C] [F] [A] [D]
Tempo:205 bpm

Guitar 1

PM PM PM PM
E E E E E E Q H H E E E E


D||---------------|------------------------|------------------------|
A||---------------|------------------------|------------------------|
F||---------------|------------------------|------------------------|
C||-----7S--9-----|--9S--10----------------|--------------9S--7-----|
G||-----5S--7-----|--7S---8----------------|--------------7S--5-----|
D||--0---------0--|------------------------|-----------0---------0--|

PM PM
E E Q H H E E E E E E Q H


-----------------------|------------------------|------------------------|
-----------------------|------------------------|------------------------|
-----------------------|------------------------|------------------------|
--7S--9----------------|--------------7S--9-----|--9S--10----------------|
--5S--7----------------|--------------5S--7-----|--7S---8----------------|
-----------------------|-----------0---------0--|------------------------|

PM PM
H E E E E W W


-----------------------|-------------------|-------------------|
-----------------------|-------------------|-------------------|
-----------------------|-------------------|-------------------|
-----------------------|-------------------|-------------------|
--------------2--2-----|--2----------------|--L----------------|
--------------0--0-----|--0----------------|--L----------------|

\1/ PM PM PM
W W E E E E E E E E


---------------------|-------------------|----------------------------|
---------------------|-------------------|----------------------------|
--7----------------|--L----------------|----------------------------|
---------------------|-------------------|-----7--9-----9--10-----7S--|
---------------------|-------------------|-----5--7-----7---7-----5S--|
---------------------|-------------------|--0--------0---------0------|

PM PM PM PM PM PM PM
[E] [E] [E] [E] [E] [E] [E] [E] [E] [E] [E] [E] [E] [E] [E] [E]


----------------------------|------------------------------|
----------------------------|------------------------------|
-----------12---------------|------------------------------|
--9---------9-----10--------|-----7S--9-----9S--10-----7S--|
--7---------------10-----9--|-----5S--7-----7S---8-----5S--|
-----0--0------0---8--0-----|--0---------0----------0------|

PM PM PM PM PM PM
[E] [E] [E] [E] [E] [E] [E] [E] [E] [E] [E] [E] [E] [E] [E] [E]


----------------------------|----------------------------|
----------------------------|----------------------------|
-----------9------------10--|----------------------------|
--9--------------8----------|-----7S--9-----9--10-----7--|
--7-----------------10------|-----5S--7-----7---7-----5--|
-----0--0-----0-------------|--0---------0---------0-----|

PM PM PM PM PM PM PM
[E] [E] [E] [E] [E] [E] [E] [E] [E] [E] [E] [E] [E] [E] [E] [E]


----------------------------|------------------------------|
----------------------------|------------------------------|
-----------12---------------|------------------------------|
--9---------9-----10-----7--|-----7S--9-----9S--10-----7S--|
--7---------------10-----9--|-----5S--7-----7S---8-----5S--|
-----0--0------0---8--0-----|--0---------0----------0------|

PM PM PM PM PM
[E] [E] [E] [E] [E] [E] [E] [E] [E] [E] [E] [E] [E] [E] [E] [E]


--------------------------|----------------------------|
--------------------------|----------------------------|
--------------------------|----------------------------|
--9--------9-----8-----7--|-----7--9-----9--10-----7S--|
--7-----------9-----8-----|-----5--7-----7---7-----5S--|
-----0--0-----------------|--0--------0---------0------|

PM PM PM PM PM PM PM
[E] [E] [E] [E] [E] [E] [E] [E] [E] [E] [E] [E] [E] [E] [E] [E]


----------------------------|------------------------------|
----------------------------|------------------------------|
-----------12---------------|------------------------------|
--9---------9-----10-----7--|-----7S--9-----9S--10-----7S--|
--7---------------10-----5--|-----5S--7-----7S---8-----5S--|
-----0--0------0---8--0-----|--0---------0----------0------|

PM PM PM
E E E E E E E E W H H


----------------------------|-------------------|--------------------|
----------------------------|-------------------|--------------------|
-----------9------------10--|--7----------------|-----------5--------|
--9--------------8----------|--7----------------|--5--------5--------|
--7-----------------10------|--5----------------|--5--------3--------|
-----0--0-----0-------------|-------------------|--3-----------------|

PM PM PM PM PM
[E] [E] [E] [E] [E] [E] [E] [E] [E] [E] [E] [E] [E] [E] [E] [E]


------------------------------|--------------------------|
------------------------------|--------------------------|
------------------------------|--------------------------|
-----7S--9-----9S--10-----7S--|--9--------9-----8-----7--|
-----5S--7-----7S---8-----5S--|--7-----------9-----8-----|
--0---------0----------0------|-----0--0-----------------|

PM PM PM PM PM PM PM
[E] [E] [E] [E] [E] [E] [E] [E] [E] [E] [E] [E] [E] [E] [E] [E]


----------------------------|----------------------------|
----------------------------|----------------------------|
----------------------------|-----------12---------------|
-----7--9-----9--10-----7S--|--9---------9-----10-----7--|
-----5--7-----7---7-----5S--|--7---------------10-----5--|
--0--------0---------0------|-----0--0------0---8--0-----|

PM PM PM PM PM PM
E E E E E E E E E E E E E E E E W


------------------------------|----------------------------|-------------------|
------------------------------|----------------------------|-------------------|
------------------------------|-----------9------------10--|-------------------|
-----7S--9-----9S--10-----7S--|--9--------------8----------|--4----------------|
-----5S--7-----7S---8-----5S--|--7-----------------10------|--4----------------|
--0---------0----------0------|-----0--0-----0-------------|--2----------------|

PM PM PM PM PM
W E E E E E E E E E E E E E E E E


-------------------|------------------------------|--------------------------|
-------------------|------------------------------|--------------------------|
-------------------|------------------------------|--------------------------|
--3----------------|-----7S--9-----9S--10-----7S--|--9--------9-----8-----7--|
--3----------------|-----5S--7-----7S---8-----5S--|--7-----------9-----8-----|
--1----------------|--0---------0----------0------|-----0--0-----------------|

[E] [E] [E] [E] [E] [E] [E] [E] [E] [E] [E] [E] [E] [E] [E] [E]


--------------------------|--------------------------|
--------------------------|--------------------------|
--------------------------|--------------------------|
--------------------------|--------------------4--5--|
--------------------------|--------------2--5--------|
--7--0--2--3--0--0--0--0--|--6--0--3--5--------------|

PM PM
[E] [E] [E] [E] [E] [E] [E] [E] [E] [E] [E] [E] [E] [E] [E] [E]


--------------------------|----------------------------------|
--------------------------|----------------------------------|
--------------------------|--16--12--14--16--12--------------|
--------------------------|----------------------14--16--12--|
--------------------------|----------------------------------|
--7--0--2--3--0--0--0--0--|----------------------------------|

[E] [E] [E] [E] [E] [E] [E] [E] [E] [E] [E] [E] [E] [E] [E] [E]


--------------------------|--------------------------|
--------------------------|--------------------------|
--------------------------|--------------------------|
--------------------------|--------------------4--5--|
--------------------------|--------------2--5--------|
--7--0--2--3--0--0--0--0--|--6--0--3--5--------------|

[E] [E] [E] [E] [E] [E] [E] [E] [E] [E] [E] [E] [E] [E] [E] [E]


--------------------------|----------------------------------|
--------------------------|----------------------------------|
--------------------------|--16--12--14--16--12--------------|
--------------------------|----------------------14--16--12--|
--------------------------|----------------------------------|
--7--0--2--3--0--0--0--0--|----------------------------------|

PM PM PM PM PM PM PM
[E] [E] [E] [E] [E] [E] [E] [E] [E] [E] [E] [E] [E] [E] [E] [E]


----------------------------|----------------------------|
----------------------------|----------------------------|
----------------------------|-----------12---------------|
-----7--9-----9--10-----7S--|--9---------9-----10-----7--|
-----5--7-----7---7-----5S--|--7---------------10-----5--|
--0--------0---------0------|-----0--0------0---8--0-----|

PM PM PM PM PM PM
E E E E E E E E E E E E E E E E W


------------------------------|----------------------------|-------------------|
------------------------------|----------------------------|-------------------|
------------------------------|-----------9------------10--|--7----------------|
-----7S--9-----9S--10-----7S--|--9--------------8----------|--7----------------|
-----5S--7-----7S---8-----5S--|--7-----------------10------|--5----------------|
--0---------0----------0------|-----0--0-----0-------------|-------------------|

PM PM PM PM PM
[H] [H] [E] [E] [E] [E] [E] [E] [E] [E] [E] [E] [E] [E] [E] [E] [E] [E]


--------------------|------------------------------|--------------------------|
--------------------|------------------------------|--------------------------|
-----------5--------|------------------------------|--------------------------|
--5--------5--------|-----7S--9-----9S--10-----7S--|--9--------9-----8-----7--|
--5--------3--------|-----5S--7-----7S---8-----5S--|--7-----------9-----8-----|
--3-----------------|--0---------0----------0------|-----0--0-----------------|

PM PM PM PM PM PM PM
[E] [E] [E] [E] [E] [E] [E] [E] [E] [E] [E] [E] [E] [E] [E] [E]


----------------------------|----------------------------|
----------------------------|----------------------------|
----------------------------|-----------12---------------|
-----7--9-----9--10-----7S--|--9---------9-----10-----7--|
-----5--7-----7---7-----5S--|--7---------------10-----5--|
--0--------0---------0------|-----0--0------0---8--0-----|

PM PM PM PM PM PM
E E E E E E E E E E E E E E E E W


------------------------------|----------------------------|-------------------|
------------------------------|----------------------------|-------------------|
------------------------------|-----------9------------10--|-------------------|
-----7S--9-----9S--10-----7S--|--9--------------8----------|--4----------------|
-----5S--7-----7S---8-----5S--|--7-----------------10------|--4----------------|
--0---------0----------0------|-----0--0-----0-------------|--2----------------|

PM PM PM PM PM PM
W E E E E E E E E E E E E E E E E


-------------------|------------------------------|--------------------------|
-------------------|------------------------------|--------------------------|
-------------------|------------------------------|--------------------------|
--3----------------|-----7S--9-----9S--10-----7S--|--9-----------------------|
--3----------------|-----5S--7-----7S---8-----5S--|--7-----------5--5--5--3--|
--1----------------|--0---------0----------0------|-----0--0--0--3--3--3--1--|

[E] [E] [E] [E] [E] [E] [E] [E] [E] [E] [E] [E] [E] [E] [E] [E]


--------------------------|--------------------------|
--------------------------|--------------------------|
--------------------------|--------------------------|
--------------------------|--------------------------|
--L--3--3--3--3--3--3--3--|--3--3--3--3--5--5--5--3--|
--L--1--1--1--1--1--1--1--|--1--1--1--1--3--3--3--1--|

[E] [E] [E] [E] [E] [E] [E] [E] [E] [E] [E] [E] [E] [E] [E] [E]


--------------------------|---------------------------|
--------------------------|---------------------------|
--------------------------|---------------------------|
--------------------------|---------------------------|
--L--3--3--3--3--3--3--3--|--3--3--3--3--5s--8--8--7--|
--L--1--1--1--1--1--1--1--|--1--1--1--1--3s--6--6--0--|

PM PM PM PM
[E] [E] [E] [E] [E] [E] [E] [E] [E] [E] [E] [E] [E] [E] [E] [E]


--------------------------|------------------------------|
--------------------------|------------------------------|
--------------------------|--9---------------------------|
--------------------------|-----------12------12-----12--|
--L-----7-----7-----7-----|-----7--9------10------9------|
--L--0-----0-----0-----0--|------------------------------|

PM PM PM PM PM
[E] [E] [E] [E] [E] [E] [E] [E] [E] [E] [E] [E] [E] [E] [E] [E]


--------------------------|-------------------------------|
--------------------------|-------------------------------|
--------------------------|-------------------------------|
--------------------------|-----------12------12---L--10--|
--7-----7-----7-----7-----|--7-----9------10---L--10---8--|
-----0-----0-----0-----0--|-----0-------------------------|

[E] [E] [E] [E] [E] [E] [E] [E] [E] [E] [E] [E] [E] [E] [E] [E]


---------------------------------|----------------------------------|
---------------------------------|----------------------------------|
---------------------------------|----------------------------------|
--L--10--10--10--10--10--10--10--|--10--10--10--10--12--12--12--10--|
--L---8---8---8---8---8---8---8--|---8---8---8---8--10--10--10---8--|
---------------------------------|----------------------------------|

[E] [E] [E] [E] [E] [E] [E] [E] [E] [E] [E] [E] [E] [E] [E] [E]


---------------------------------|----------------------------------|
---------------------------------|----------------------------------|
---------------------------------|----------------------------------|
--L--10--10--10--10--10--10--10--|--10--10--10--10--12s--15--15-----|
--L---8---8---8---8---8---8---8--|---8---8---8---8--10s--13--13--7--|
---------------------------------|-------------------------------0--|

PM PM PM PM
[E] [E] [E] [E] [E] [E] [E] [E] [E] [E] [E] [E] [E] [E] [E] [E]


--------------------------|------------------------------|
--------------------------|------------------------------|
--------------------------|--9---------------------------|
--------------------------|-----------12------12-----12--|
--L-----7-----7-----7-----|-----7--9------10------9------|
--L--0-----0-----0-----0--|------------------------------|

PM PM PM PM
[E] [E] [E] [E] [E] [E] [E] [E] [E] [E] [E] [E] [E] [E] [E] [E]


--------------------------|-------------------------------|
--------------------------|-------------------------------|
--------------------------|-------------------------------|
--------------------------|-----9-----12------12----------|
--7-----7-----7-----7-----|--7--L--9---L--10---L--10--10--|
-----0-----0-----0-----0--|------------------------8---8--|

[E] [E] [E] [E] [E] [E] [E] [E] [E] [E] [E] [E] [E]
[E] [E] [E]


--------------------------|--------------------------|
--------------------------|--------------------------|
--------------------------|--------------------------|
--------------------------|--------------------4--5--|
--------------------------|--------------2--5--------|
--7--0--2--3--0--0--0--0--|--6--0--3--5--------------|

PM PM
[E] [E] [E] [E] [E] [E] [E] [E] [E] [E] [E] [E] [E] [E] [E] [E]


--------------------------|----------------------------------|
--------------------------|----------------------------------|
--------------------------|--16--12--14--16--12--------------|
--------------------------|----------------------14--16--12--|
--------------------------|----------------------------------|
--7--0--2--3--0--0--0--0--|----------------------------------|

PM PM PM
[E] [E] [E] [E] [E] [E] [E] [E] [E] [E] [E] [E] [E] [E] [E] [E]


----------------------------------|-----------------------------------|
----------------------------------|-----------------------------------|
----------------------------------|-----------------------------------|
----------------------------------|--------------------------16h--17--|
--14------------------------------|--13----------12--14--17-----------|
------12--14--15--12--12--12--12--|------12--15-----------------------|

PM PM PM PM PM PM PM
[E] [E] [E] [E] [E] [E] [E] [E] [E] [E] [E] [E] [E] [E] [E] [E]


----------------------------------|------------------------------------|
----------------------------------|------------------------------------|
----------------------------------|------------------------------------|
----------------------------------|----------16h--17----------16h--17--|
--14------------------------------|--14--17-----------14--17-----------|
------12--14--15--12--12--12--12--|------------------------------------|

\1/
W W W W


-------------------|-------------------|-------------------|-------------------|
-------------------|-------------------|-------------------|-------------------|
-------------------|-------------------|-------------------|-------------------|
-------------------|-------------------|-------------------|-------------------|
--2----------------|--L----------------|--L----------------|--L----------------|
--0----------------|--L----------------|--L----------------|--L----------------|

PM PM PM PM
E E E E E E Q W E E E E E E Q


--------------------------|-------------------|--------------------------|
--------------------------|-------------------|--------------------------|
--------------------------|-------------------|--------------------------|
-----7--9-----9--10-------|-------------------|-----7--9-----9--10-------|
-----5--7-----7---7-------|-------------------|-----5--7-----7---8-------|
--0--------0--------------|-------------------|--0--------0--------------|

PM PM PM PM PM PM PM PM PM PM PM PM PM PM
W Q E E E E E E E E E E E E E E


-------------------|-------------------------|--------------------------|
-------------------|-------------------------|--------------------------|
-------------------|--7----------------------|--------------------------|
-------------------|--7----------------------|--5--5--5--5--------------|
-------------------|--5----5--5--5--5--5--5--|--------------3--3--3--3--|
-------------------|-------------------------|--------------------------|

PM PM PM PM PM
[E] [E] [E] [E] [E] [E] [E] [E] [E] [E] [E] [E] [E] [E] [E] [E]


------------------------------|--------------------------|
------------------------------|--------------------------|
------------------------------|--------------------------|
-----7S--9-----9S--10-----7S--|--9--------9-----8-----7--|
-----5S--7-----7S---8-----5S--|--7-----------9-----8-----|
--0---------0----------0------|-----0--0-----------------|

PM PM PM PM PM PM PM
[E] [E] [E] [E] [E] [E] [E] [E] [E] [E] [E] [E] [E] [E] [E] [E]


----------------------------|----------------------------|
----------------------------|----------------------------|
----------------------------|-----------12---------------|
-----7--9-----9--10-----7S--|--9---------9-----10-----7--|
-----5--7-----7---7-----5S--|--7---------------10-----5--|
--0--------0---------0------|-----0--0------0---8--0-----|

PM PM PM PM PM PM
E E E E E E E E E E E E E E E E W


------------------------------|----------------------------|-------------------|
------------------------------|----------------------------|-------------------|
------------------------------|-----------9------------10--|-------------------|
-----7S--9-----9S--10-----7S--|--9--------------8----------|--4----------------|
-----5S--7-----7S---8-----5S--|--7-----------------10------|--4----------------|
--0---------0----------0------|-----0--0-----0-------------|--2----------------|

PM PM PM PM PM
W E E E E E E E E E E E E E E E E


-------------------|------------------------------|--------------------------|
-------------------|------------------------------|--------------------------|
-------------------|------------------------------|--------------------------|
--3----------------|-----7S--9-----9S--10-----7S--|--9-----------------------|
--3----------------|-----5S--7-----7S---8-----5S--|--7-----------5--5--5--3--|
--1----------------|------------0----------0------|-----0--0--0--3--3--3--1--|

[E] [E] [E] [E] [E] [E] [E] [E] [E] [E] [E] [E] [E] [E] [E] [E]


--------------------------|--------------------------|
--------------------------|--------------------------|
--------------------------|--------------------------|
--------------------------|--------------------------|
--L--3--3--3--3--3--3--3--|--3--3--3--3--5--5--5--3--|
--L--1--1--1--1--1--1--1--|--1--1--1--1--3--3--3--1--|

[E] [E] [E] [E] [E] [E] [E] [E] [E] [E] [E] [E] [E] [E] [E] [E]


--------------------------|---------------------------|
--------------------------|---------------------------|
--------------------------|---------------------------|
--------------------------|---------------------------|
--L--3--3--3--3--3--3--3--|--3--3--3--3--5s--8--8--7--|
--L--1--1--1--1--1--1--1--|--1--1--1--1--3s--6--6--0--|

PM PM PM PM
[E] [E] [E] [E] [E] [E] [E] [E] [E] [E] [E] [E] [E] [E] [E] [E]


--------------------------|------------------------------|
--------------------------|------------------------------|
--------------------------|--9---------------------------|
--------------------------|-----------12------12-----12--|
--L-----7-----7-----7-----|-----7--9------10------9------|
--L--0-----0-----0-----0--|------------------------------|

PM PM PM PM PM
[E] [E] [E] [E] [E] [E] [E] [E] [E] [E] [E] [E] [E] [E] [E] [E]


--------------------------|-------------------------------|
--------------------------|-------------------------------|
--------------------------|-------------------------------|
--------------------------|-----------12------12---L--10--|
--7-----7-----7-----7-----|--7-----9------10---L--10---8--|
-----0-----0-----0-----0--|-----0-------------------------|

[E] [E] [E] [E] [E] [E] [E] [E] [E] [E] [E] [E] [E] [E] [E] [E]


---------------------------------|----------------------------------|
---------------------------------|----------------------------------|
---------------------------------|----------------------------------|
--L--10--10--10--10--10--10--10--|--10--10--10--10--12--12--12--10--|
--L---8---8---8---8---8---8---8--|---8---8---8---8--10--10--10---8--|
---------------------------------|----------------------------------|

[E] [E] [E] [E
] [E] [E] [E] [E] [E] [E] [E] [E] [E] [E] [E] [E]


---------------------------------|----------------------------------|
---------------------------------|----------------------------------|
---------------------------------|----------------------------------|
--L--10--10--10--10--10--10--10--|--10--10--10--10--12s--15--15-----|
--L---8---8---8---8---8---8---8--|---8---8---8---8--10s--13--13--7--|
---------------------------------|-------------------------------0--|

PM PM PM PM
[E] [E] [E] [E] [E] [E] [E] [E] [E] [E] [E] [E] [E] [E] [E] [E]


--------------------------|------------------------------|
--------------------------|------------------------------|
--------------------------|--9---------------------------|
--------------------------|-----------12------12-----12--|
--L-----7-----7-----7-----|-----7--9------10------9------|
--L--0-----0-----0-----0--|------------------------------|

PM PM PM PM
[E] [E] [E] [E] [E] [E] [E] [E] [E] [E] [E] [E] [E] [E] [E] [E]


--------------------------|-------------------------------|
--------------------------|-------------------------------|
--------------------------|-------------------------------|
--------------------------|-----9-----12------12----------|
--7-----7-----7-----7-----|--7--L--9---L--10---L--10--10--|
-----0-----0-----0-----0--|------------------------8---8--|

PM PM PM PM PM PM
E E E E E E Q W E E E E E E E E


-------------------------|-------------------|--------------------------|
-------------------------|-------------------|--------------------------|
-------------------------|-------------------|--------------------------|
--2--2--2--2--2--2-------|-------------------|--9--9--7--9--9--9-----7--|
--2--2--2--2--2--2-------|-------------------|--7--7--5--7--7--7-----5--|
--0--0--0--0--0--0-------|-------------------|--------------------------|

PM PM PM PM PM PM
E E Q H E E E E E E Q W


----------------------|-------------------------|-------------------|
----------------------|-------------------------|-------------------|
----------------------|-------------------------|-------------------|
-----7----------------|--2--2--2--2--2--2-------|-------------------|
-----5----------------|--2--2--2--2--2--2-------|-------------------|
----------------------|--0--0--0--0--0--0-------|-------------------|

[E] [E] [E] [E] [E] [E] [E] [E] [E] [E] [E] [E] [E] [E] [E] [E]


----------------------------|----------------------------|
----------------------------|----------------------------|
----------------------------|----------------------------|
--9--9--7--7--12--12-----7--|-----7-----7--12--12--7--7--|
--7--7--5--5--10--10-----5--|-----5-----5--10--10--5--5--|
----------------------------|----------------------------|

[E] [E] [E] [E] [E] [E] [E] [E] [E] [E] [E] [E] [E] [E] [E] [E]


------------------------------|-------------------------------|
------------------------------|-------------------------------|
-----9-----12------12---------|--12-----12---------12-----12--|
--7-----9------10------10--9--|------9------9--10------9------|
------------------------------|-------------------------------|
------------------------------|-------------------------------|

[E] [E] [E] [E] [E] [E] [E] [E] [E] [E] [E] [E] [E] [E] [E] [E]


------------------------------|-------------------------------|
------------------------------|-------------------------------|
-----9-----12------12---------|--12-----12---------12-----12--|
--7-----9------10------10--9--|------9------9--10------9------|
------------------------------|-------------------------------|
------------------------------|-------------------------------|

[E] [E] [E] [E] [E] [E] [E] [E] [E] [E] [E] [E] [E] [E] [E] [E]


------------------------------|-------------------------------|
------------------------------|-------------------------------|
-----9-----12------12---------|--12-----12---------12-----12--|
--7-----9------10------10--9--|------9------9--10------9------|
------------------------------|-------------------------------|
------------------------------|-------------------------------|

[E] [E] [E] [E] [E] [E] [E] [E] [E] [E] [E] [E] [E] [E] [E] [E]


-----------------------------|----------------------------------|
-----------------------------|----------------------------------|
-----9-----12-----10---------|--12------12------14------12------|
--7-----9------8------8--10--|------10------10------10------10--|
-----------------------------|----------------------------------|
-----------------------------|----------------------------------|

[E] [E] [E] [E] [E] [E] [E] [E] [E] [E] [E] [E] [E] [E] [E] [E]


----------------------------------|----------------------------------|
----------------------------------|----------------------------------|
------14------17------17----------|--17------17----------17------17--|
--12------14------15------15--14--|------14------14--15------14------|
----------------------------------|----------------------------------|
----------------------------------|----------------------------------|

[E] [E] [E] [E] [E] [E] [E] [E] [E] [E] [E] [E] [E] [E] [E] [E]


----------------------------------|----------------------------------|
----------------------------------|----------------------------------|
------14------17------17----------|--17------17----------17------17--|
--12------14------15------15--14--|------14------14--15------14------|
----------------------------------|----------------------------------|
----------------------------------|----------------------------------|

[E] [E] [E] [E] [E] [E] [E] [E] [E] [E] [E] [E] [E] [E] [E] [E]


----------------------------------|----------------------------------|
----------------------------------|----------------------------------|
------14------17------17----------|--17------17----------17------17--|
--12------14------15------15--14--|------14------14--15------14------|
----------------------------------|----------------------------------|
----------------------------------|----------------------------------|

[E] [E] [E] [E] [E] [E] [E] [E] [E] [E] [E] [E] [E] [E] [E] [E]


----------------------------------|----------------------------------|
----------------------------------|----------------------------------|
------14------17------17----------|--19------19------21------19------|
--12------14------15------14--17--|------17------17------17------17--|
----------------------------------|----------------------------------|
----------------------------------|----------------------------------|

H Q E E E E E E E E E E H Q E E


----------------------|----------------------------|----------------------|
----------------------|----------------------------|----------------------|
----------------------|----------------------------|----------------------|
----------------------|----------------------------|----------------------|
--7-------------7--7--|--7s--5--5--5--5s--3--3--3--|--7-------------7--7--|
--5-------------5--5--|--5s--3--3--3--3s--1--1--1--|--5-------------5--5--|

E E E E E E E E H Q E E


--------------------------------|----------------------|
--------------------------------|----------------------|
--------------------------------|----------------------|
--------------------------------|----------------------|
--7s--10--10--10--10s--3--3--3--|--7-------------7--7--|
--5s---8---8---8---8s--1--1--1--|--5-------------5--5--|

E E E E E E E E W H H


----------------------------|-------------------|--------------------|
------- ---------------------|-------------------|--------------------|
----------------------------|-------------------|--------------------|
----------------------------|--7----------------|--3-----------------|
--7s--5--5--5--5s--3--3--3--|--5----------------|--1--------6--------|
--5s--3--3--3--3s--1--1--1--|-------------------|-----------4--------|

H Q E E E E E E E E E E H Q E E


----------------------|----------------------------|----------------------|
----------------------|----------------------------|----------------------|
----------------------|----------------------------|----------------------|
----------------------|----------------------------|----------------------|
--7-------------7--7--|--7s--5--5--5--5s--3--3--3--|--7-------------7--7--|
--5-------------5--5--|--5s--3--3--3--3s--1--1--1--|--5-------------5--5--|

E E E E E E E E H Q E E


--------------------------------|----------------------|
--------------------------------|----------------------|
--------------------------------|----------------------|
--------------------------------|----------------------|
--7s--10--10--10--10s--3--3--3--|--7-------------7--7--|
--5s---8---8---8---8s--1--1--1--|--5-------------5--5--|

E E E E E E E E W H H


----------------------------|-------------------|--------------------|
----------------------------|-------------------|--------------------|
----------------------------|-------------------|--------------------|
----------------------------|--7----------------|--3-----------------|
--7s--5--5--5--5s--3--3--3--|--5----------------|--1--------5--------|
--5s--3--3--3--3s--1--1--1--|-------------------|-----------3--------|

H Q E E E E E E E E E E H Q E E


----------------------|----------------------------|----------------------|
----------------------|----------------------------|----------------------|
----------------------|----------------------------|----------------------|
----------------------|----------------------------|----------------------|
--6-------------6--6--|--6s--4--4--4--4s--2--2--2--|--6-------------6--6--|
--4-------------4--4--|--4s--2--2--2--2s--0--0--0--|--4-------------4--4--|

PM PM
E E E E E E E E H Q E E


----------------------------|----------------------|
----------------------------|----------------------|
----------------------------|----------------------|
----------------------------|----------------------|
--6s--9--9--9--9s--2--2--2--|--6-------------6--6--|
--4s--7--7--7--7s--0--0--0--|--4-------------4--4--|

E E E E E E E E W W


----------------------------|-------------------|-------------------|
----------------------------|-------------------|-------------------|
----------------------------|-------------------|-------------------|
----------------------------|-------------------|-------------------|
--6s--4--4--4--4s--2--2--2--|--3----------------|--2----------------|
--4s--2--2--2--2s--0--0--0--|--1----------------|--0----------------|

H Q E E E E E E E E E E H Q E E


----------------------|----------------------------|----------------------|
----------------------|----------------------------|----------------------|
----------------------|----------------------------|----------------------|
----------------------|----------------------------|----------------------|
--6-------------6--6--|--6s--4--4--4--4s--2--2--2--|--6-------------6--6--|
--4-------------4--4--|--4s--2--2--2--2s--0--0--0--|--4-------------4--4--|

PM PM
E E E E E E E E H Q E E


----------------------------|----------------------|
----------------------------|----------------------|
----------------------------|----------------------|
----------------------------|----------------------|
--6s--9--9--9--9s--2--2--2--|--6-------------6--6--|
--4s--7--7--7--7s--0--0--0--|--4-------------4--4--|

E E E E E E E E W W


----------------------------|-------------------|-------------------|
----------------------------|-------------------|-------------------|
----------------------------|-------------------|-------------------|
----------------------------|-------------------|-------------------|
--6s--4--4--4--4s--2--2--2--|--3----------------|--2----------------|
--4s--2--2--2--2s--0--0--0--|--1----------------|--0----------------|

H Q E E E E E E E E E E H Q E E


----------------------|----------------------------|----------------------|
----------------------|----------------------------|----------------------|
----------------------|----------------------------|----------------------|
--7-------------7--7--|--7s--5--5--5--5s--3--3--3--|--7-------------7--7--|
--5-------------5--5--|--5s--3--3--3--3s--1--1--1--|--5-------------5--5--|
----------------------|----------------------------|----------------------|

E E E E E E E E H Q E E


--------------------------------|----------------------|
--------------------------------|----------------------|
--------------------------------|----------------------|
--7s--10--10--10--10s--3--3--3--|--7-------------7--7--|
--5s---8---8---8---8s--1--1--1--|--5-------------5--5--|
--------------------------------|----------------------|

E E E E E E E E W W


----------------------------|-------------------|-------------------|
----------------------------|-------------------|-------------------|
----------------------------|-------------------|-------------------|
--7s--5--5--5--5s--3--3--3--|--4----------------|--3----------------|
--5s--3--3--3--3s--1--1--1--|--2----------------|--1----------------|
----------------------------|-------------------|-------------------|

H Q E E E E E E E E E E H Q E E


----------------------|----------------------------|----------------------|
----------------------|----------------------------|----------------------|
----------------------|----------------------------|----------------------|
--7-------------7--7--|--7s--5--5--5--5s--3--3--3--|--7-------------7--7--|
--5-------------5--5--|--5s--3--3--3--3s--1--1--1--|--5-------------5--5--|
----------------------|----------------------------|----------------------|

E E E E E E E E H Q E E


--------------------------------|----------------------|
--------------------------------|----------------------|
--------------------------------|----------------------|
--7s--10--10--10--10s--3--3--3--|--7-------------7--7--|
--5s---8---8---8---8s--1--1--1--|--5-------------5--5--|
--------------------------------|----------------------|

E E E E E E E E W W


----------------------------|-------------------|-------------------|
----------------------------|-------------------|-------------------|
----------------------------|-------------------|-------------------|
--7s--5--5--5--5s--3--3--3--|--4----------------|--3----------------|
--5s--3--3--3--3s--1--1--1--|--2----------------|--1----------------|
----------------------------|-------------------|-------------------|

PM PM
[H] [H] [E] [E] [E] [E] [H]


--------------------|--------------------------|
--------------------|--------------------------|
--------------------|---------9h--10-----------|
--7-----------------|--7--10-------------------|
--5-----------------|--------------------------|
--------------------|--------------------------|

PM PM PM PM \1/
E E E E E E E E H E E Q


--------------------------------|------------------------||
--------------------------------|------------------------||
---------9h--10---------9h--10--|--7--------L----------||
--7--10----------7--10-- --------|------------------------||
--------------------------------|------------------------||
--------------------------------|------------------------||

____________________________________________________________________________

____________________________________________________________________________

Guitar 2

PM PM PM PM
E E E E E E Q H H E E E E


D||---------------|------------------------|------------------------|
A||---------------|------------------------|------------------------|
F||---------------|------------------------|------------------------|
C||-----7S--9-----|--9S--10----------------|--------------9S--7-----|
G||-----5S--7-----|--7S---8----------------|--------------7S--5-----|
D||--0---------0--|------------------------|-----------0---------0--|

PM PM
E E Q H H E E E E E E Q H


-----------------------|------------------------|------------------------|
-----------------------|------------------------|------------------------|
-----------------------|------------------------|------------------------|
--7S--9----------------|--------------7S--9-----|--9S--10----------------|
--5S--7----------------|--------------5S--7-----|--7S---8----------------|
-----------------------|-----------0---------0--|------------------------|

PM PM
H E E E E W W


-----------------------|-------------------|-------------------|
-----------------------|-------------------|-------------------|
-----------------------|-------------------|-------------------|
-----------------------|-------------------|-------------------|
--------------2--2-----|--2----------------|--L----------------|
--------------0--0-----|--0----------------|--L----------------|

PM PM PM
W H H E E E E E E E E


-------------------|---------------------|----------------------------|
-------------------|---------------------|----------------------------|
-------------------|---------------------|----------------------------|
--9----------------|--L------------------|-----7--9-----9--10-----7S--|
--7----------------|--L--------7\--------|-----5--7-----7---7-----5S--|
-------------------|-----------7\--------|--0--------0---------0------|

PM PM PM PM PM PM PM
[E] [E] [E] [E] [E] [E] [E] [E] [E] [E] [E] [E] [E] [E] [E] [E]


----------------------------|------------------------------|
----------------------------|------------------------------|
----------------------------|------------------------------|
--9---------9-----10-----7--|-----7S--9-----9S--10-----7S--|
--7--------10-----10-----9--|-----5S--7-----7S---8-----5S--|
-----0--0------0---8--0-----|--0---------0----------0------|

PM PM PM PM PM PM
[E] [E] [E] [E] [E] [E] [E] [E] [E] [E] [E] [E] [E] [E] [E] [E]


-----------------------------|----------------------------|
-----------------------------|----------------------------|
-----------------------------|----------------------------|
--9------------------9h--10--|-----7S--9-----9--10-----7--|
--7--------10-----9----------|-----5S--7-----7---7-----5--|
-----0--0------0-------------|--0---------0---------0-----|

PM PM PM PM PM PM PM
[E] [E] [E] [E] [E] [E] [E] [E] [E] [E] [E] [E] [E] [E] [E] [E]


----------------------------|------------------------------|
----------------------------|------------------------------|
----------------------------|------------------------------|
--9---------9-----10-----7--|-----7S--9-----9S--10-----7S--|
--7--------10-----10-----9--|-----5S--7-----7S---8-----5S--|
-----0--0------0---8--0-----|--0---------0----------0------|

PM PM PM PM PM
[E] [E] [E] [E] [E] [E] [E] [E] [E] [E] [E] [E] [E] [E] [E] [E]


-----------------------------|----------------------------|
-----------------------------|----------------------------|
-----------------------------|----------------------------|
--9------------12-----11-----|-----7--9-----9--10-----7S--|
--7--------10------9------8--|-----5--7-----7---7-----5S--|
-----0--0--------------------|--0--------0---------0------|

PM PM PM PM PM PM PM
[E] [E] [E] [E] [E] [E] [E] [E] [E] [E] [E] [E] [E] [E] [E] [E]


----------------------------|------------------------------|
----------------------------|------------------------------|
----------------------------|------------------------------|
--9---------9-----10-----7--|-----7S--9-----9S--10-----7S--|
--7--------10-----10-----5--|-----5S--7-----7S---8-----5S--|
-----0--0------0---8--0-----|--0---------0----------0------|

PM PM PM
E E E E E E E E W H H


-----------------------------|-------------------|--------------------|
-----------------------------|-------------------|--------------------|
-----------------------------|--7----------------|-----------5--------|
--9------------------9h--10--|--7----------------|--5--------5--------|
--7--------10-----9----------|--5----------------|--5--------3--------|
-----0--0------0-------------|-------------------|--3-----------------|

PM PM PM PM PM
[E] [E] [E] [E] [E] [E] [E] [E] [E] [E] [E] [E] [E] [E] [E] [E]


------------------------------|-----------------------------|
------------------------------|-----------------------------|
------------------------------|-----------------------------|
-----7S--9-----9S--10-----7S--|--9------------12-----11-----|
-----5S--7-----7S---8-----5S--|--7--------10------9------8--|
--0---------0----------0------|-----0--0--------------------|

PM PM PM PM PM PM PM
[E] [E] [E] [E] [E] [E] [E] [E] [E] [E] [E] [E] [E] [E] [E] [E]


----------------------------|----------------------------|
----------------------------|----------------------------|
----------------------------|----------------------------|
-----7--9-----9--10-----7S--|--9---------9-----10-----7--|
-----5--7-----7---7-----5S--|--7--------10-----10-----5--|
--0--------0---------0------|-----0--0------0---8--0-----|

PM PM PM PM PM PM
[E] [E] [E] [E] [E] [E] [E] [E] [E] [E] [E] [E] [E] [E] [E] [E]


------------------------------|-----------------------------|
------------------------------|-----------------------------|
------------------------------|-----------------------------|
-----7S--9-----9S--10-----7S--|--9------------------9h--10--|
-----5S--7-----7S---8-----5S--|--7--------10-----9----------|
--0---------0----------0------|-----0--0------0-------------|

PM PM PM
W W E E E E E E E E


-------------------|-------------------|------------------------------|
-------------------|-------------------|------------------------------|
-------------------|-------------------|------------------------------|
--4----------------|--3----------------|-----7S--9-----9S--10-----7S--|
--4----------------|--3----------------|-----5S--7-----7S---8-----5S--|
--2----------------|--1----------------|--0---------0----------0------|

PM PM
[E] [E] [E] [E] [E] [E] [E] [E] [E] [E] [E] [E] [E] [E] [E] [E]


-----------------------------|--------------------------|
-----------------------------|--------------------------|
-----------------------------|--------------------------|
--9------------12-----11-----|--------------------------|
--7--------10------9------8--|--------------------------|
-----0--0--------------------|--7--0--2--3--0--0--0--0--|

PM PM
E E E E E E E E E E E E E E E E Q Q Q Q


--------------------------|--------------------------|----------------------|
--------------------------|--------------------------|----------------------|
--------------------------|--------------------------|----------------------|
--------------------4--5- -|--------------------------|-------5----9----7----|
--------------2--5--------|--------------------------|--5----3----7----5----|
--6--0--3--5--------------|--7--0--2--3--0--0--0--0--|--3-------------------|

PM PM
[E] [E] [E] [E] [E] [E] [E] [E] [E] [E] [E] [E] [E] [E] [E] [E]


--------------------------|--------------------------|
--------------------------|--------------------------|
--------------------------|--------------------------|
--------------------------|--------------------4--5--|
--------------------------|--------------2--5--------|
--7--0--2--3--0--0--0--0--|--6--0--3--5--------------|

PM PM PM
E E E E E E E E Q Q Q Q E E E E E E E E


--------------------------|----------------------|----------------------------|
--------------------------|----------------------|----------------------------|
--------------------------|----------------------|----------------------------|
--------------------------|-------5----9----7----|-----7--9-----9--10-----7S--|
--------------------------|--5----3----7----5----|-----5--7-----7---7-----5S--|
--7--0--2--3--0--0--0--0--|--3-------------------|--0--------0---------0------|

PM PM PM PM PM PM PM
[E] [E] [E] [E] [E] [E] [E] [E] [E] [E] [E] [E] [E] [E] [E] [E]


----------------------------|------------------------------|
----------------------------|------------------------------|
----------------------------|------------------------------|
--9---------9-----10-----7--|-----7S--9-----9S--10-----7S--|
--7--------10-----10-----5--|-----5S--7-----7S---8-----5S--|
-----0--0------0---8--0-----|--0---------0----------0------|

PM PM PM
E E E E E E E E W H H


-----------------------------|-------------------|--------------------|
-----------------------------|-------------------|--------------------|
-----------------------------|--7----------------|-----------5--------|
--9------------------9h--10--|--7----------------|--5--------5--------|
--7--------10-----9----------|--5----------------|--5---

—————–

If you wanna study Children of Bodom Smile Pretty for the Devil guitar chords, you have to learn the 5 major chords, C major, A major, G major, E major, and D major. The reason we use all major chords is that the minors of any of these chords just lack few adjustments. Each one of those minor chords is completely based on its major counterpart.

Fyi, you may also search for another musical genres, including jazz guitar chords, country music guitar chords, pop guitar chords, world music guitar chords, and rock guitar chords in this website.
Want to play another guitar chords? Easy .. just click search button in this page, you may find it by song title or by the artist.
Enjoy!