Pouring Reign played in ukulele can be one of your favourite music. Not only hearing the song but you can play “Pouring Reign by As Blood Runs Black” using ukulele too. Yup .. this music by can also be played by that instrument. But, before that, you must know its ukulele chords.

Whether you are searching for Pouring Reign ukulele chords, you just visit to the right web site.

Yups, ukulele is not easy to study in the beginning, but gets easier the longer you stick with it. The more you practice, the smooth ukulele will feel to play that music.

“Pouring Reign” ukulele chords has rhythm and included in “Allegiance (2006)” album.

Pouring Reign by As Blood Runs Black ukulele Chords

By.As Blood Runs Black

Tuning: C-G-C-F-A-D

x:Mute
/:Slide
h:Hammer on
p:Pull off
HN: Hold Note


D[----------0------------------------------------0-------------]
A[--------8---8---8---------10-------8--------12---12---12-----]
F[------x-------0---------0--------0--------0---------0--------]
C[----5-----------------7--------9-------10--------------------]
G[--7-----------------9--------10------12----------------------]
C[-------------------------------------------------------------]
D[-------------0-----------------0---------------0-------------]
A[----------13---13---13-------5---5---5-------3---3-----------]
F[--------0---------0--------0-------0-------0-------0---------]
C[-----10------------------2---------------4-----------4-------]
G[--12-------------------3---------------5---------------------]
C[-------------------------------------------------------------]
D[----------7-----------------------------0---------]
A[--------0---0---------5-------7-------8---8---8---]
F[------0-------0-----0-------0-------0-------0-----]
C[----5-------------2-------2-------5---------------]
G[--7-------------3------/5------/7-----------------]
C[--------------------------------------------------]

Repeat 2 more times
There is a lead guitar doing lead riffs to fill in the music,
But I’m just teaching the the main Riffs and Solo.

~solo~


D[---------HN12-----------------HN12-----------------11-12h15----]
A[--------12----12-------------12----12-----------12-------------]
F[-----12----------12-------12----------12-----11----------------]
C[--14----------------14-14-----------------13-------------------]
G[---------------------------------------------------------------]
C[---------------------------------------------------------------]

“What you are doing on the HN “Hold Note” 12th fret D string
Is your holding it one half of a second longer to keep the timing right.”


D[------------------------------------------------]
A[--13-17p13--------------------10----10----------]
F[-----------14--------------12----12----12-------]
C[--------------14h16-----14----------------14----]
G[---------------------15-------------------------]
C[------------------------------------------------]
D[---------------------------------------11h12-15-/19-------------]
A[-----------12----12-----------------12--------------------------]
F[--------12----12----12-----------11-----------------11h12-12----]
C[-----14----------------14-----13-----------------------------14-]
G[--15-----------------------14-----------------------------------]
C[----------------------------------------------------------------]
D[----------------------------------12---------------11-12h15----]
A[-----------12----12------------12----12----------12------------]
F[--------12----12----12------12----------12----11---------------]
C[-----14---------------14-14----------------13------------------]
G[---------------------------------------------------------------]
C[---------------------------------------------------------------]
D[---------------------------------------------------------------]
A[--13-17p13--------------------10----10-------------------------]
F[-----------14--------------12----12----12----------------------]
C[--------------14h16-----14----------------14-------------------]
G[---------------------15----------------------------------------]
C[---------------------------------------------------------------]
D[---------------------------------------11h12-15-/19-------------]
A[-----------12----12-----------------12--------------------------]
F[--------12----12----12-----------11-----------------11h12-12----]
C[-----14----------------14-----13-----------------------------14-]
G[--15-----------------------14-----------------------------------]
C[----------------------------------------------------------------]

Main Chorus Repeat this twice picking the notes, Then strum the rest until
you start rapping it up. Then just start picking the notes.
.


D[----------0------------------------------------0-------------]
A[--------8---8---8---------10-------8--------12---12---12-----]
F[------x-------0---------0--------0--------0---------0--------]
C[----5-----------------7--------9-------10--------------------]
G[--7-----------------9--------10------12----------------------]
C[-------------------------------------------------------------]
D[-------------0-----------------0---------------0-------------]
A[----------13---13---13-------5---5---5-------3---3-----------]
F[--------0---------0--------0-------0-------0-------0---------]
C[-----10------------------2---------------4-----------4-------]
G[--12-------------------3---------------5---------------------]
C[-------------------------------------------------------------]
D[----------7-----------------------------0---------]
A[--------0---0---------5-------7-------8---8---8---]
F[------0-------0-----0-------0-------0-------0-----]
C[----5-------------2-------2-------5---------------]
G[--7-------------3------/5------/7-----------------]
C[--------------------------------------------------]

I hope this Tab helps you out. let me know if there’s any problems with the
Tab
—————–

If you wanna study As Blood Runs Black Pouring Reign ukulele chords, the most important basic ukulele chords to understand are C chord, D chord, G chord, and Em chord. These set you up to play a many of songs, and each of them is easy to learn.

Btw, you may also find another musical genres, including jazz ukulele chords, country music ukulele chords, pop ukulele chords, world music ukulele chords, and rock ukulele chords here.
Looking for another ukulele chords? Easy .. just use search button in this page, you can search it by song title or by the artist.
Have Fun!