Out of Control in guitar acoustic version may be one of the good song you liked. Not only enjoying the music but you can play “Out of Control by Eagles” using guitar too. Yes .. this music by can also be played by that instrument. But, first thing, you need to know its guitar chords.

When you are searching for Out of Control guitar chords, you already come to the right web.

Yes, guitar is hard to learn in the beginning, but gets easier the longer you stick with it. The more you proceeding, the smooth guitar will feel to play Out of Control music.

“Out of Control” guitar chords has rhythm and included in “Desperado (1973)” album.

Out of Control by Eagles Guitar Chords

Here are tabbed 2 guitars!!!.
This is not my tab, a friend found it somwhere on the net and emailed to me. So
congralutations to you, polite anonymous author!
INTRO (enters from the end of Twenty-One)
[+] [+] [+] [+] [+] [+] [+] [+] [+] [+] [+] [+] [+] [+] [+] [+]


e:-10h12-12-8-10--------|-8h10-10-8~~~~~~~~~-|-10h12-12-8-10--------|-8h10-10-8~~~~~~~~~~-|
B:-10h12-12-8-10--------|-8h10-10-8~~~~~~~~~-|-10h12-12-8-10--------|-8h10-10-8~~~~~~~~~~-|
G:----------------------|--------------------|----------------------|---------------------|
D:----------------------|--------------------|----------------------|---------------------|
A:----------------------|--------------------|----------------------|---------------------|
E:----------------------|--------------------|----------------------|---------------------|
e:----------------------|----------//////9~~~|~\\-------------------|---------------------|
B:----------------------|----------//////10~~|~\\-------------------|--------------////21~|
G:----------------------|----------//////9~~~|~\\-------------------|--------------////22~|
D:----------------------|--------------------|----------------------|---------------------|
A:----------------------|--------------------|----------------------|---------------------|
E:----------------------|--------------------|----------------------|---------------------|
------------------------------------------------------------------------

wwwwww yeah! Oh my
[+] [+] [+] [+] [+] [+] [+] [+] [+] [+] [+] [+] [+] [+] [+] [+]


e:-10h12-12-8-10--------|-8h10-10-8~~~~~~~~~~~-|-10h12-12-8-10--------|-8h10-10-8~~~~~~~~~~-|
B:-10h12-12-8-10--------|-8h10-10-8~~~~~~~~~~~-|-10h12-12-8-10--------|-8h10-10-8~~~~~~~~~~-|
G:----------------------|----------------------|----------------------|---------------------|
D:----------------------|----------------------|----------------------|---------------------|
A:----------------------|----------------------|----------------------|---------------------|
E:----------------------|----------------------|----------------------|---------------------|
e:----------------------|------------////9--9--|-9\\\-----------------|---------------------|
B:~~~~~\\\\-------------|------------////10-10-|-10\\-----------------|---------------------|
G:~~~~~\\\\-------------|------------////9--9--|-9\\\-----------------|---------------------|
D:----------------------|----------------------|----------------------|---------------------|
A:----------------------|----------------------|----------------------|---------------------|
E:----------------------|----------------------|----------------------|---------------------|
------------------------------------------------------------------------

Verse 1: strum chords
Oh, [E]my, don’t the sky look spacious
With the [E]stars all shinin’ down
Well, I can [A]hear the night wind howlin’
It’s a [D]high and lonesome sound
And I [E]ain’t had a woman in so long
I can’t [E]feed my starvin’ soul
Come on, [A]saddle up, boys, we’re gonna [D]ride into town
We’re gonna [E]get a little out of control


------------------------------------------------------------------------

Short Interlude
There’s a …
[+] [+] [+] [+] [+] [+] [+] [+] [+] [+] [+] [+] [+] [+] [+] [+]


e:-----------------|-------------------------|-----------------|-----------------|
B:-----------------|-------------------------|-----------------|-----------------|
G:-2---4---5---4-2-|----2--2--2--2--2--2--2--|-2---4---5---4-2-|---2---4---5---6-|
D:-2---4---5---4-2-|----2--2--2--2--2--2--2--|-2---4---5---4-2-|---2---4---5---6-|
A:-----------------|-------------------------|-----------------|-----------------|
E:-----------------|-------------------------|-----------------|-----------------|
e:-----------------|--/////9--9--9--9--9--9\\|\\---------------|-----------------|
B:-----------------|--/////10-10-10-10-10-10\|\\---------------|-----------------|
G:-----------------|--/////9--9--9--9--9--9\\|\\---------------|-----------------|
D:-----------------|-------------------------|-----------------|-----------------|
A:-----------------|-------------------------|-----------------|-----------------|
E:-----------------|-------------------------|-----------------|-----------------|
------------------------------------------------------------------------

Verse 2
There’s a [E]card game in the corner
And the [E]barmaid smiled at me
Well, I [A]tipped her a silver dollar and
she [D]brought me a drink for free
All the [E]town-folk call her the cheap one
And the [E]gamblers call her the hole
Come on, [A]set ’em up again, I [D]got me a friend
And I [E]think I’m gettin’ out of control
Repeat Interlude


------------------------------------------------------------------------

Guitar Solo
Oh oh oh 1 1
[+] [+] [+] [+] [+] [+] [+] [+] [+] [+] [+] [+]


e:--------------------------|-------------------------|----------------------|
B:--------------------------|-------------------------|----------------------|
G:-----------------------13-|-14^---14^---13-13----13-|---13\\\-----------13-|
D:-------------------/14----|-------------------14----|---------------/14----|
A:--------------------------|-------------------------|----------------------|
E:--------------------------|-------------------------|----------------------|

[1] [1]


e:--------------------------|-------------------------|----------------------|
B:-----------------------10-|-12^---12^---10-10----10-|---10\\\-----------10-|
G:-------------------/13----|-------------------11----|---------------/13----|
D:--------------------------|-------------------------|----------------------|
A:--------------------------|-------------------------|----------------------|
E:--------------------------|-------------------------|----------------------|
------------------------------------------------------------------------

[1] [1] [1][1]
[+] [+] [+] [+] [+] [+] [+] [+] [+] [+] [+] [+]


e:-------------------------|----------------------|-------------------------|
B:-------------------------|-------------------10-|-12^---12^---10-10----10-|
G:-14^---14^---13-13----13-|---13\\\-------/13----|-------------------11----|
D:-------------------14----|----------------------|-------------------------|
A:-------------------------|----------------------|-------------------------|
E:-------------------------|----------------------|-------------------------|

[1] [1] [1] [1]


e:-------------------------|----------------------|-------------------------|
B:-12^---12^---10-10----10-|---10\\\-----------15-|-17^---17^---15-15----15-|
G:-------------------11----|---------------/16----|-------------------16----|
D:-------------------------|----------------------|-------------------------|
A:-------------------------|----------------------|-------------------------|
E:-------------------------|----------------------|-------------------------|
------------------------------------------------------------------------

[1] [1]
[+] [+] [+] [+] [+] [+] [+] [+] [+] [+] [+] [+]


e:----------------------|-------------------------|----------------------|
B:---10\\\-----------15-|-17^---17^---15-15----15-|---15\\\-------/15-17-|
G:---------------/16----|-------------------16----|----------------------|
D:----------------------|-------------------------|----------------------|
A:----------------------|-------------------------|----------------------|
E:----------------------|-------------------------|----------------------|

[1] [1]


e:-------------------12-|-15^---15^---12-12----12-|---12\\\-------/12-15-|
B:---15\\\-------/15----|-------------------15----|----------------------|
G:----------------------|-------------------------|-------- --------------|
D:----------------------|-------------------------|----------------------|
A:----------------------|-------------------------|----------------------|
E:----------------------|-------------------------|----------------------|
------------------------------------------------------------------------

[1] [1][1]
[+] [+] [+] [+] [+] [+] [+] [+] [+] [+] [+] [+]


e:-------------------------|-------------------------|-------17-17-------17-17-|
B:-17----15-17-17----15-17-|-17^r--15-17----15-17-15-|-17^---------17^---------|
G:-------------------------|-------------------------|-------------------------|
D:-------------------------|-------------------------|-------------------------|
A:-------------------------|-------------------------|-------------------------|
E:-------------------------|-------------------------|-------------------------|

1 1 hold… 1 hold…


e:-15----12-15-15----12-15-|-15^r--12-15----12-15-12-|-15^---15-15-15^---15-15-|
B:-------------------------|-------------------------|-------------------------|
G:-------------------------|-------------------------|-------------------------|
D:-------------------------|-------------------------|-------------------------|
A:-------------------------|-------------------------|-------------------------|
E:-------------------------|-------------------------|-------------------------|

[1][1][1]
[+] [+] [+] [+] [+] [+] [+] [+] [+] [+] [+] [+]


e:-----------------------------------------|-15^---15^---15^r--------|----------------------|
B:-19-17---19-17---19-17----19-17--17--17--|-------------------13-15-|---15---15---13-15-13-|
G:-----------------------------------------|-------------------------|----------------------|
D:-----------------------------------------|-------------------------|----------------------|
A:-----------------------------------------|-------------------------|----------------------|
E:-----------------------------------------|-------------------------|----------------------|

[1] [1] [1]


e:-14-12---14-12---14-12----14-12--12--12--|-15^---15^---15^r--13-15-|---15---15---13-15-13-|
B:-----------------------------------------|-------------------------|----------------------|
G:-----------------------------------------|-------------------------|----------------------|
D:-----------------------------------------|-------------------------|----------------------|
A:-----------------------------------------|-------------------------|----------------------|
E:-----------------------------------------|-------------------------|----------------------|
------------------------------------------------------------------------

1 1 1 1 1 She’s …
[+] [+] [+] [+] [+] [+] [+] [+]


e:-----12-15-----12-15-----12-|-15-----12-15-----12-15----|
B:-15^-------15^-------15^----|----15^-------15^-------12-|
G:----------------------------|---------------------------|
D:----------------------------|---------------------------|
A:----------------------------|---------------------------|
E:----------------------------|---------------------------|

[1] [1] [1] [1] [1]


e:-----12-15-----12-15-----12-|-15-----12-15-----12-15----|
B:-15^-------15^-------15^----|----15^-------15^-------12-|
G:----------------------------|---------------------------|
D:----------------------------|---------------------------|
A:----------------------------|---------------------------|
E:----------------------------|---------------------------|
------------------------------------------------------------------------

Bridge
She’s [D]cool water, her [A]momma taught her
[Bm]I got news, she’s mine and mine a[E]lone


------------------------------------------------------------------------

Verse
And if [E]anybody’s lookin’ for trouble
You know [E]I’m the one you want to try
Well, I’ll [A]fight any man who wants to
And I [D]don’t care who or why
You got to [E]gamble on your story
You got no [E]guts, you get no glory
And I’m [A]bettin’ my money on an [D]ace in the hole
[E]Think I’m gettin’ out of control


------------------------------------------------------------------------

In the ending slide down from E5…
—————–

If you want to study Eagles Out of Control guitar chords, you need to learn the 5 major chords, C major, A major, G major, E major, and D major. The reason we use all major chords is that the minors of any of these chords only require tiny adjustments. Each one of those minor chords is fully based on its major counterpart.

Fyi, you can also search for another musical genres, including jazz guitar chords, country music guitar chords, pop guitar chords, world music guitar chords, and rock guitar chords here.
Searching for another guitar chords? Simple .. just use search button in this site, you may search it by song title or by the artist.
Enjoy!