New Vibration in ukulele acoustic version may be one of the good music you liked. Not only hearing the song but you can play “New Vibration by Collective Soul” using ukulele too. Yup .. this song by may also be played by that device. But, before that, you need to know its ukulele chords.

Whether you are searching for New Vibration ukulele chords, you’ve visit to the perfect web.

Yeah,Ya, ukulele is hard to study in the beginning, but gets easier the more time you stick with it. The more you proceeding, the easier ukulele will feel to play New Vibration song.

“New Vibration” ukulele chords has rhythm and included in “Afterwords (2007)” album.

New Vibration by Collective Soul ukulele Chords


-----------------------------------------------------------------------------

New Vibration – Collective Soul (GUITAR)


-----------------------------------------------------------------------------

Tabbed by: Scotto10

Tuning: standard tuning on a bartone guitar for the rhthym. The solo was
played in the studio on a six string guitar. It is played live on a seven
string guitar. I have added a six string guitar for the solo and for a “fake”
way to get by if you don’t have a 7 string guitar. The notes on the riff are
correct, just an octave higher. The rhthym guitar chords are an approximation
on how best to play it without 7 strings. Collective Soul has three guitarists
but on this song they play it with only two live.

Guitar 1 ( 7 string guitar)

[E] [E] [E] [E] [E] [E] [E] [E] [E] [E] [E] [E] [E] [E] [E] [E]


E||-------|------------------------------|----------------------------|
B||-------|------------------------------|----------------------------|
G||-------|------------------------------|----------------------------|
D||-------|------------------------------|----------------------x--x--|
A||-------|------------------------------|----------------------x--x--|
E||-------|---------5p--0----------------|---------5p--0--------x--x--|
B||-------|--6s--7---------3p--0--3p--0--|--6s--7---------3--5--------|

[E] [E] [E] [E] [E] [E] [E] [E] [E] [E] [E] [E] [E] [E] [E] [E]


------------------------------|----------------------------|
------------------------------|----------------------------|
------------------------------|----------------------------|
------------------------------|----------------------x--x--|
------------------------------|----------------------x--x--|
---------5p--0----------------|---------5p--0--------x--x--|
--6s--7---------3p--0--3p--0--|--6s--7---------3--5--------|

[E] [E] [E] [E] [E] [E] [E] [E] [E] [E] [E] [E] [E] [E] [E] [E]


------------------------------|----------------------------|
------------------------------|----------------------------|
------------------------------|----------------------------|
------------------------------|----------------------x--x--|
------------------------------|----------------------x--x--|
---------5p--0----------------|---------5p--0--------x--x--|
--6s--7---------3p--0--3p--0--|--6s--7---------3--5--------|

NH NH NH
[E] [E] [E] [E] [E] [E] [E] [E] [E] [E] [E] [E] [E] [E] [E] [E]


------------------------------|----------------------------------|
------------------------------|----------------------------------|
------------------------------|----------------------------------|
------------------------------|---------------------x----x----x--|
------------------------------|---------------------x----x----x--|
---------5p--0----------------|---------5p--0--------------------|
--6s--7---------3p--0--3p--0--|--6s--7---------3--3--3--3--|

E E Q H W E E Q H


----------------------|-------------------|----------------------|
----------------------|-------------------|----------------------|
----------------------|-------------------|----------------------|
----------------------|-------------------|----------------------|
----------------------|-------------------|----------------------|
--5--5--5-------------|-------------------|--5--5--5-------------|
--3--3--3-------------|-------------------|--3--3--3-------------|

W E E E E E E E E E E E E E E E E


-------------------|------------------------------|----------------------------|
-------------------|------------------------------|----------------------------|
-------------------|------------------------------|----------------------------|
-------------------|------------------------------|----------------------x--x--|
-------------------|------------------------------|----------------------x--x--|
-------------------|---------5p--0----------------|---------5p--0--------x--x--|
-------------------|--6s--7---------3p--0--3p--0--|--6s--7---------3--5--------|

NH NH
[E] [E] [E] [E] [E] [E] [E] [E] [E] [E] [E] [E] [E] [E] [E] [E]


------------------------------|----------------------------------|
------------------------------|----------------------------------|
------------------------------|----------------------------------|
------------------------------|---------------------x----x----x--|
------------------------------|---------------------x----x----x--|
---------5p--0----------------|---------5p--0--------------------|
--6s--7---------3p--0--3p--0--|--6s--7---------3--3--3--3--|

E E Q H W E E Q H


----------------------|-------------------|----------------------|
----------------------|-------------------|----------------------|
----------------------|-------------------|----------------------|
----------------------|-------------------|----------------------|
----------------------|-------------------|----------------------|
--5--5--5-------------|-------------------|--5--5--5-------------|
--3--3--3-------------|-------------------|--3--3--3-------------|

W E E E E E E E E E E E E E E E E


-------------------|------------------------------|----------------------------|
-------------------|------------------------------|----------------------------|
-------------------|------------------------------|----------------------------|
-------------------|------------------------------|-------------------------x--|
-------------------|------------------------------|-------------------------x--|
-------------------|---------5p--0----------------|---------5p--0-----------x--|
-------------------|--6s--7---------3p--0--3p--0--|--6s--7---------3--5--------|

NH NH NH
[E] [E] [E] [E] [E] [E] [E] [E] [E] [E] [E] [E] [E] [E] [E] [E]


------------------------------|----------------------------------|
------------------------------|----------------------------------|
------------------------------|----------------------------------|
------------------------------|---------------------x----x----x--|
------------------------------|---------------------x----x----x--|
---------5p--0----------------|---------5p--0--------------------|
--6s--7---------3p--0--3p--0--|--6s--7---------3--3--3--3--|

[E] [E] [E] [E] [E] [E] [E] [E] [E] [E] [E] [E] [E] [E] [E] [E]


--------------------------|--------------------------|
--------------------------|--------------------------|
--------------------------|--2--2--2--2--2--2--2--2--|
--------------------------|--2--2--2--2--2--2--2--2--|
--------------------------|--0--0--0--0--0--0--0--0--|
--5--5--5--5--5--5--5--5--|--------------------------|
--3--3--3--3--3--3--3--3--|--2--2--2--2--2--2--2--2--|

[E] [E] [E] [E] [E] [E] [E] [E] [E] [E] [E] [E] [E] [E] [E] [E]


--------------------------|--------------------------|
--------------------------|--------------------------|
--------------------------|--------------------------|
--------------------------|--------------------------|
--------------------------|--5--5--5--5--5--5--5--5--|
--2--2--2--2--2--2--2--2--|--3--3--3--3--3--3--3--3--|
--0--0--0--0--0--0--0--0--|--------------------------|

[E] [E] [E] [E] [E] [E] [E] [E] [E] [E] [E] [E] [E] [E] [E] [E]


--------------------------|--------------------------|
--------------------------|--------------------------|
--------------------------|--2--2--2--2--2--2--2--2--|
--------------------------|--2--2--2--2--2--2--2--2--|
--------------------------|--0--0--0--0--0--0--0--0--|
--5--5--5--5--5--5--5--5--|--------------------------|
--3--3--3--3--3--3--3--3--|--2--2--2--2--2--2--2--2--|

[E] [E]
[E] [E] [E] [E] [E] [E] [E] [E] [E] [E] [E] [E] [E] [E]


--------------------------|--------------------------|
--------------------------|--------------------------|
--------------------------|--------------------------|
--------------------------|--------------------------|
--------------------------|--5--5--5--5--5--5--5--5--|
--2--2--2--2--2--2--2--2--|--3--3--3--3--3--3--3--3--|
--0--0--0--0--0--0--0--0--|--------------------------|

[E] [E] [E] [E] [E] [E] [E] [E] [E] [E] [E] [E] [E] [E] [E] [E]


------------------------------|----------------------------|
------------------------------|----------------------------|
------------------------------|----------------------------|
------------------------------|----------------------x--x--|
------------------------------|----------------------x--x--|
---------5p--0----------------|---------5p--0--------x--x--|
--6s--7---------3p--0--3p--0--|--6s--7---------3--5--------|

NH NH NH
[E] [E] [E] [E] [E] [E] [E] [E] [E] [E] [E] [E] [E] [E] [E] [E]


------------------------------|----------------------------------|
------------------------------|----------------------------------|
------------------------------|----------------------------------|
------------------------------|---------------------x----x----x--|
------------------------------|---------------------x----x----x--|
---------5p--0----------------|---------5p--0--------------------|
--6s--7---------3p--0--3p--0--|--6s--7---------3--3--3--3--|

E E Q H E E Q H


----------------------|-------------------|----------------------|
----------------------|-------------------|----------------------|
----------------------|-------------------|----------------------|
----------------------|-------------------|----------------------|
----------------------|-------------------|----------------------|
--5--5--5-------------|-------------------|--5--5--5-------------|
--3--3--3-------------|-------------------|--3--3--3-------------|

W E E E E E E E E E E E E E E E E


-------------------|------------------------------|----------------------------|
-------------------|------------------------------|----------------------------|
-------------------|------------------------------|----------------------------|
-------------------|------------------------------|----------------------x--x--|
-------------------|------------------------------|----------------------x--x--|
-------------------|---------5p--0----------------|---------5p--0--------x--x--|
-------------------|--6s--7---------3p--0--3p--0--|--6s--7---------3--5--------|

NH NH NH
[E] [E] [E] [E] [E] [E] [E] [E] [E] [E] [E] [E] [E] [E] [E] [E]


------------------------------|----------------------------------|
------------------------------|----------------------------------|
------------------------------|----------------------------------|
------------------------------|---------------------x----x----x--|
------------------------------|---------------------x----x----x--|
---------5p--0----------------|---------5p--0--------------------|
--6s--7---------3p--0--3p--0--|--6s--7---------3--3--3--3--|

E E Q H W E E Q H


----------------------|-------------------|----------------------|
----------------------|-------------------|----------------------|
----------------------|-------------------|----------------------|
----------------------|-------------------|----------------------|
----------------------|-------------------|----------------------|
--5--5--5-------------|-------------------|--5--5--5-------------|
--3--3--3-------------|-------------------|--3--3--3-------------|

W E E E E E E E E E E E E E E E E


-------------------|------------------------------|----------------------------|
-------------------|------------------------------|----------------------------|
-------------------|------------------------------|----------------------------|
-------------------|------------------------------|-------------------------x--|
-------------------|------------------------------|-------------------------x--|
-------------------|---------5p--0----------------|---------5p--0-----------x--|
-------------------|--6s--7---------3p--0--3p--0--|--6s--7---------3--5--------|

NH NH NH
[E] [E] [E] [E] [E] [E] [E] [E] [E] [E] [E] [E] [E] [E] [E] [E]


------------------------------|----------------------------------|
------------------------------|----------------------------------|
------------------------------|----------------------------------|
------------------------------|---------------------x----x----x--|
------------------------------|---------------------x----x----x--|
---------5p--0----------------|---------5p--0--------------------|
--6s--7---------3p--0--3p--0--|--6s--7---------3--3--3--3--|

[E] [E] [E] [E] [E] [E] [E] [E] [E] [E] [E] [E] [E] [E] [E] [E]


--------------------------|--------------------------|
--------------------------|--------------------------|
--------------------------|--2--2--2--2--2--2--2--2--|
--------------------------|--2--2--2--2--2--2--2--2--|
--------------------------|--0--0--0--0--0--0--0--0--|
--5--5--5--5--5--5--5--5--|--------------------------|
--3--3--3--3--3--3--3--3--|--2--2--2--2--2--2--2--2--|

[E] [E] [E] [E] [E] [E] [E] [E] [E] [E] [E] [E] [E] [E] [E] [E]


--------------------------|--------------------------|
--------------------------|--------------------------|
--------------------------|--------------------------|
--------------------------|--------------------------|
--------------------------|--5--5--5--5--5--5--5--5--|
--2--2--2--2--2--2--2--2--|--3--3--3--3--3--3--3--3--|
--0--0--0--0--0--0--0--0--|--------------------------|

[E] [E] [E] [E] [E] [E] [E] [E] [E] [E] [E] [E] [E] [E] [E] [E]


--------------------------|--------------------------|
--------------------------|--------------------------|
--------------------------|--2--2--2--2--2--2--2--2--|
--------------------------|--2--2--2--2--2--2--2--2--|
--------------------------|--0--0--0--0--0--0--0--0--|
--5--5--5--5--5--5--5--5--|--------------------------|
--3--3--3--3--3--3--3--3--|--2--2--2--2--2--2--2--2--|

[E] [E] [E] [E] [E] [E] [E] [E] [E] [E] [E] [E] [E] [E] [E] [E]


--------------------------|--------------------------|
--------------------------|--------------------------|
--------------------------|--------------------------|
--------------------------|--------------------------|
--------------------------|--5--5--5--5--5--5--5--5--|
--2--2--2--2--2--2--2--2--|--3--3--3--3--3--3--3--3--|
--0--0--0--0--0--0--0--0--|--------------------------|

[E] [E] [E] [E] [E] [E] [E] [E] [E] [E] [E] [E] [E] [E] [E] [E]


---------------------------|--------------------------|
--7-----7-----7--7--7s--8--|--5-----5-----5--5--5--8--|
---------------------------|--------------------------|
--4-----4-----4--4--4s--5--|--2-----2-----2--2--2--5--|
---------------------------|--------------------------|
---------------------------|--------------------------|
---------------------------|--------------------------|

[E] [E] [E] [E] [E] [E] [E] [E] [E] [E] [E] [E] [E] [E] [E] [E]


--------------------------|--------------------------|
--7-----7-----7--7--7--8--|--5-----5-----5--5--5--8--|
--------------------------|--------------------------|
--4-----4-----4--4--4--5--|--2-----2-----2--2--2--5--|
--------------------------|--------------------------|
--------------------------|--------------------------|
--------------------------|--------------------------|

[E] [E] [E] [E] [E] [E] [E] [E] [E]
[E] [E] [E] [E] [E] [E] [E]


--------------------------|--------------------------|
--7-----7-----7--7--7--8--|--5-----5-----5--5--5--8--|
--------------------------|--------------------------|
--4-----4-----4--4--4--5--|--2-----2-----2--2--2--5--|
--------------------------|--------------------------|
--------------------------|--------------------------|
--------------------------|--------------------------|

[E] [E] [E] [E] [E] [E] [E] [E] [E] [E] [E] [E] [E] [E] [E] [E]


--------------------------|--------------------------|
--7-----7-----7--7--7--8--|--5-----5-----5--5--5--8--|
--------------------------|--------------------------|
--4-----4-----4--4--4--5--|--2-----2-----2--2--2--5--|
--------------------------|--------------------------|
--------------------------|--------------------------|
--------------------------|--------------------------|

[E] [E] [E] [E] [E] [E] [E] [E] [E] [E] [E] [E] [E] [E] [E] [E]


--------------------------|--------------------------|
--------------------------|--------------------------|
--------------------------|--------------------------|
--7--7--7--7--7--7--7--7--|--7--7--7--7--7--7--7--7--|
--5--5--5--5--5--5--5--5--|--4--4--4--4--4--4--4--4--|
--------------------------|--------------------------|
--------------------------|--------------------------|

[E] [E] [E] [E] [E] [E] [E] [E] [E] [E] [E] [E] [E] [E] [E] [E]


--------------------------|--------------------------|
--------------------------|--------------------------|
--------------------------|--------------------------|
--4--4--4--4--4--4--4--4--|--------------------------|
--2--2--2--2--2--2--2--2--|--5--5--5--5--5--5--5--5--|
--------------------------|--3--3--3--3--3--3--3--3--|
--------------------------|--------------------------|

[E] [E] [E] [E] [E] [E] [E] [E] [E] [E] [E] [E] [E] [E] [E] [E]


--------------------------|--------------------------|
--------------------------|--------------------------|
--------------------------|--------------------------|
--7--7--7--7--7--7--7--7--|--7--7--7--7--7--7--7--7--|
--5--5--5--5--5--5--5--5--|--4--4--4--4--4--4--4--4--|
--------------------------|--------------------------|
--------------------------|--------------------------|

[E] [E] [E] [E] [E] [E] [E] [E] [E] [E] [E] [E] [E] [E] [E] [E]


--------------------------|--------------------------|
--------------------------|--------------------------|
--------------------------|--------------------------|
--4--4--4--4--4--4--4--4--|--------------------------|
--2--2--2--2--2--2--2--2--|--5--5--5--5--5--5--5--5--|
--------------------------|--3--3--3--3--3--3--3--3--|
--------------------------|--------------------------|

[E] [E] [E] [E] [E] [E] [E] [E] [E] [E] [E] [E] [E] [E] [E] [E]


------------------------------|----------------------------|
------------------------------|----------------------------|
------------------------------|----------------------------|
------------------------------|----------------------x--x--|
------------------------------|----------------------x--x--|
---------5p--0----------------|---------5p--0--------x--x--|
--6s--7---------3p--0--3p--0--|--6s--7---------3--5--------|

[E] [E] [E] [E] [E] [E] [E] [E] [E] [E] [E] [E] [E] [E] [E] [E]


------------------------------|----------------------------|
------------------------------|----------------------------|
------------------------------|----------------------------|
------------------------------|----------------------x--x--|
------------------------------|----------------------x--x--|
---------5p--0----------------|---------5p--0--------x--x--|
--6s--7---------3p--0--3p--0--|--6s--7---------3--5--------|

[E] [E] [E] [E] [E] [E] [E] [E] [E] [E] [E] [E] [E] [E] [E] [E]


------------------------------|----------------------------|
------------------------------|----------------------------|
------------------------------|----------------------------|
------------------------------|----------------------x--x--|
------------------------------|----------------------x--x--|
---------5p--0----------------|---------5p--0--------x--x--|
--6s--7---------3p--0--3p--0--|--6s--7---------3--5--------|

[E] [E] [E] [E] [E] [E] [E] [E] [E] [E] [E] [E] [H]


------------------------------|-------------------------|
------------------------------|-------------------------|
------------------------------|-------------------------|
------------------------------|-------------------------|
------------------------------|-------------------------|
---------5p--0----------------|---------5p--0-----------|
--6s--7---------3p--0--3p--0--|--6s--7------------------|

[E] [E] [E] [E] [E] [E] [E] [E] [E] [E] [E] [E] [E] [E] [E] [E]


--------------------------|--------------------------|
--------------------------|--------------------------|
--------------------------|--2--2--2--2--2--2--2--2--|
--------------------------|--2--2--2--2--2--2--2--2--|
--------------------------|--0--0--0--0--0--0--0--0--|
--5--5--5--5--5--5--5--5--|--------------------------|
--3--3--3--3--3--3--3--3--|--2--2--2--2--2--2--2--2--|

[E] [E] [E] [E] [E] [E] [E] [E] [E] [E] [E] [E] [E] [E] [E] [E]


--------------------------|--------------------------|
--------------------------|--------------------------|
--------------------------|--------------------------|
--------------------------|--------------------------|
--------------------------|--5--5--5--5--5--5--5--5--|
--2--2--2--2--2--2--2--2--|--3--3--3--3--3--3--3--3--|
--0--0--0--0--0--0--0--0--|--------------------------|

[E] [E] [E] [E] [E] [E] [E] [E] [E] [E] [E] [E] [E] [E] [E] [E]


--------------------------|--------------------------|
--------------------------|--------------------------|
--------------------------|--2--2--2--2--2--2--2--2--|
--------------------------|--2--2--2--2--2--2--2--2--|
--------------------------|--0--0--0--0--0--0--0--0--|
--5--5--5--5--5--5--5--5--|--------------------------|
--3--3--3--3--3--3--3--3--|--2--2--2--2--2--2--2--2--|

[E] [E] [E] [E] [E] [E] [E] [E] [E] [E] [E] [E] [E] [E] [E] [E]


--------------------------|--------------------------|
--------------------------|--------------------------|
--------------------------|--------------------------|
--------------------------|--------------------------|
--------------------------|--5--5--5--5--5--5--5--5--|
--2--2--2--2--2--2--2--2--|--3--3--3--3--3--3--3--3--|
--0--0--0--0--0--0--0--0--|--------------------------|

[E] [E] [E] [E] [E] [E] [E] [E] [E] [E] [E] [E] [E] [E] [E] [E]


---------------------------|---------------------------|
--7-----7-----7--7--7s--8--|--5-----5-----5--5--5s--8--|
---------------------------|---------------------------|
--4-----4-----4--4--4s--5--|--2-----2-----2--2--2s--5--|
---------------------------|---------------------------|
---------------------------|---------------------------|
---------------------------|---------------------------|

[E] [E] [E] [E] [E] [E] [E] [E] [E] [E] [E] [E] [E] [E] [E] [E]


---------------------------|---------------------------|
--7-----7-----7--7--7s--8--|--5-----5-----5--5--5s--8--|
---------------------------|---------------------------|
--4-----4-----4--4--4s--5--|--2-----2-----2--2--2s--5--|
---------------------------|---------------------------|
---------------------------|---------------------------|
---------------------------|---------------------------|

[E] [E] [E] [E] [E] [E] [E] [E] [E] [E] [E] [E] [E] [E] [E] [E]


---------------------------|------ ---------------------|
--7-----7-----7--7--7s--8--|--5-----5-----5--5--5s--8--|
---------------------------|---------------------------|
--4-----4-----4--4--4s--5--|--2-----2-----2--2--2s--5--|
---------------------------|---------------------------|
---------------------------|---------------------------|
---------------------------|---------------------------|

[E] [E] [E] [E] [E] [E] [E] [E] [E] [E] [E] [E] [E] [E] [E] [E]


---------------------------|---------------------------|
--7-----7-----7--7--7s--8--|--5-----5-----5--5--5s--8--|
---------------------------|---------------------------|
--4-----4-----4--4--4s--5--|--2-----2-----2--2--2s--5--|
---------------------------|---------------------------|
---------------------------|---------------------------|
---------------------------|---------------------------|

[E] [E] [E] [E] [E] [E] [E] [E] [E] [E] [E] [E] [E] [E] [E] [E]


--------------------------|--------------------------|
--------------------------|--------------------------|
--------------------------|--------------------------|
--7--7--7--7--7--7--7--7--|--7--7--7--7--7--7--7--7--|
--5--5--5--5--5--5--5--5--|--4--4--4--4--4--4--4--4--|
--------------------------|--------------------------|
--------------------------|--------------------------|

[E] [E] [E] [E] [E] [E] [E] [E] [E] [E] [E] [E] [E] [E] [E] [E]


--------------------------|--------------------------|
--------------------------|--------------------------|
--------------------------|--------------------------|
--4--4--4--4--4--4--4--4--|--------------------------|
--2--2--2--2--2--2--2--2--|--5--5--5--5--5--5--5--5--|
--------------------------|--3--3--3--3--3--3--3--3--|
--------------------------|--------------------------|

[E] [E] [E] [E] [E] [E] [E] [E] [E] [E] [E] [E] [E] [E] [E] [E]


--------------------------|--------------------------|
--------------------------|--------------------------|
--------------------------|--------------------------|
--7--7--7--7--7--7--7--7--|--7--7--7--7--7--7--7--7--|
--5--5--5--5--5--5--5--5--|--4--4--4--4--4--4--4--4--|
--------------------------|--------------------------|
--------------------------|--------------------------|

[E] [E] [E] [E] [E] [E] [E] [E] [E] [E] [E] [E] [E] [E] [E] [E]


--------------------------|--------------------------|
--------------------------|--------------------------|
--------------------------|--------------------------|
--4--4--4--4--4--4--4--4--|--------------------------|
--2--2--2--2--2--2--2--2--|--5--5--5--5--5--5--5--5--|
--------------------------|--3--3--3--3--3--3--3--3--|
--------------------------|--------------------------|

[E] [E] [E] [E] [E] [E] [E] [E] [E] [E] [E] [E] [E] [E] [E] [E]


------------------------------|----------------------------|
------------------------------|----------------------------|
------------------------------|----------------------------|
------------------------------|----------------------x--x--|
------------------------------|----------------------x--x--|
---------5p--0----------------|---------5p--0--------x--x--|
--6s--7---------3p--0--3p--0--|--6s--7---------3--5--------|

NH NH NH
[E] [E] [E] [E] [E] [E] [E] [E] [E] [E] [E] [E] [E] [E] [E] [E]


------------------------------|----------------------------------|
------------------------------|----------------------------------|
------------------------------|----------------------------------|
------------------------------|---------------------x----x----x--|
------------------------------|---------------------x----x----x--|
---------5p--0----------------|---------5p--0--------------------|
--6s--7---------3p--0--3p--0--|--6s--7---------3--3--3--3--|

[E] [E] [E] [E] [E] [E] [E] [E] [E] [E] [E] [E] [E] [E] [E] [E]


------------------------------|----------------------------|
------------------------------|----------------------------|
------------------------------|----------------------------|
------------------------------|----------------------x--x--|
------------------------------|----------------------x--x--|
---------5p--0----------------|---------5p--0--------x--x--|
--6s--7---------3p--0--3p--0--|--6s--7---------3--5--------|

[E] [E] [E] [E] [E] [E] [E] [E] [E] [E] [E] [E] [H]


------------------------------|-------------------------||
------------------------------|-------------------------||
------------------------------|-------------------------||
------------------------------|-------------------------||
------------------------------|-------------------------||
---------5p--0----------------|---------5p--0-----------||
--6s--7---------3p--0--3p--0--|--6s--7------------------||

Guitar 2

I transcribed all of this on a 7 string guitar but all of it can be played on
a 6 string.


E||-------------------|-------------------|-------------------|
B||-------------------|-------------------|-------------------|
G||-------------------|-------------------|-------------------|
D||-------------------|-------------------|-------------------|
A||-------------------|-------------------|-------------------|
E||-------------------|-------------------|-------------------|
B||-------------------|-------------------|-------------------|
-------------------|-------------------|-------------------|-------------------|
-------------------|-------------------|-------------------|-------------------|
-------------------|-------------------|-------------------|-------------------|
-------------------|-------------------|-------------------|-------------------|
-------------------|-------------------|-------------------|-------------------|
-------------------|-------------------|-------------------|-------------------|
-------------------|-------------------|-------------------|-------------------|
-------------------|-------------------|-------------------|-------------------|
-------------------|-------------------|-------------------|-------------------|
-------------------|-------------------|-------------------|-------------------|
-------------------|-------------------|-------------------|-------------------|
-------------------|-------------------|-------------------|-------------------|
-------------------|-------------------|-------------------|-------------------|
-------------------|-------------------|-------------------|-------------------|
-------------------|-------------------|-------------------|-------------------|
-------------------|-------------------|-------------------|-------------------|
-------------------|-------------------|-------------------|-------------------|
-------------------|-------------------|-------------------|-------------------|
-------------------|-------------------|-------------------|-------------------|
-------------------|-------------------|-------------------|-------------------|
-------------------|-------------------|-------------------|-------------------|
-------------------|-------------------|-------------------|-------------------|
-------------------|-------------------|-------------------|-------------------|
-------------------|-------------------|-------------------|-------------------|
-------------------|-------------------|-------------------|-------------------|
-------------------|-------------------|-------------------|-------------------|
-------------------|-------------------|-------------------|-------------------|
-------------------|-------------------|-------------------|-------------------|
-------------------|-------------------|-------------------|-------------------|
-------------------|-------------------|-------------------| -------------------|
-------------------|-------------------|-------------------|-------------------|
-------------------|-------------------|-------------------|-------------------|
-------------------|-------------------|-------------------|-------------------|
-------------------|-------------------|-------------------|-------------------|
-------------------|-------------------|-------------------|-------------------|

[E] [E] [E] [E] [E] [E] [E] [E]


-------------------|-------------------|--10--10--10--10--10--10--10--10--|
-------------------|-------------------|--10--10--10--10--10--10--10--10--|
-------------------|-------------------|--11--11--11--11--11--11--11--11--|
-------------------|-------------------|----------------------------------|
-------------------|-------------------|----------------------------------|
-------------------|-------------------|----------------------------------|
-------------------|-------------------|----------------------------------|

[E] [E] [E] [E] [E] [E] [E] [E] [E] [E] [E] [E] [E] [E] [E] [E]


---9---9---9---9---9---9---9---9--|--10--10--10--10--10--10--10--10--|
--10--10--10--10--10--10--10--10--|--10--10--10--10--10--10--10--10--|
--11--11--11--11--11--11--11--11--|--11--11--11--11--11--11--11--11--|
----------------------------------|----------------------------------|
----------------------------------|----------------------------------|
----------------------------------|----------------------------------|
----------------------------------|----------------------------------|

[E] [E] [E] [E] [E] [E] [E] [E] [E] [E] [E] [E] [E] [E] [E] [E]


--7--7--7--7--7--7--7--7--|--10--10--10--10--10--10--10--10--|
--8--8--8--8--8--8--8--8--|--10--10--10--10--10--10--10--10--|
--7--7--7--7--7--7--7--7--|--11--11--11--11--11--11--11--11--|
--------------------------|----------------------------------|
--------------------------|----------------------------------|
--------------------------|----------------------------------|
--------------------------|----------------------------------|

[E] [E] [E] [E] [E] [E] [E] [E] [E] [E] [E] [E] [E] [E] [E] [E]


---9---9---9---9---9---9---9---9--|--10--10--10--10--10--10--10--10--|
--10--10--10--10--10--10--10--10--|--10--10--10--10--10--10--10--10--|
--11--11--11--11--11--11--11--11--|--11--11--11--11--11--11--11--11--|
----------------------------------|----------------------------------|
----------------------------------|----------------------------------|
----------------------------------|----------------------------------|
----------------------------------|----------------------------------|

[E] [E] [E] [E] [E] [E] [E] [E]


--7--7--7--7--7--7--7--7--|-------------------|-------------------|
--8--8--8--8--8--8--8--8--|-------------------|-------------------|
--7--7--7--7--7--7--7--7--|-------------------|-------------------|
--------------------------|-------------------|-------------------|
--------------------------|-------------------|-------------------|
--------------------------|-------------------|-------------------|
--------------------------|-------------------|-------------------|
-------------------|-------------------|-------------------|-------------------|
-------------------|-------------------|-------------------|-------------------|
-------------------|-------------------|-------------------|-------------------|
-------------------|-------------------|-------------------|-------------------|
-------------------|-------------------|-------------------|-------------------|
-------------------|-------------------|-------------------|-------------------|
-------------------|-------------------|-------------------|-------------------|
-------------------|-------------------|
-------------------|-------------------|
-------------------|-------------------|
-------------------|-------------------|
-------------------|-------------------|
-------------------|-------------------|
-------------------|-------------------|

Natural harmonic pitch “E”
NH NH NH NH
Q S S E Q S S E Q S S E H


--------12---------------------12----------12--12----|-------12-12-------------|
-----------------------------------------------------|-------------------------|
-----------------------------------------------------|-------------------------|
-----------------------------------------------------|-------------------------|
-------3--------------------3---------3-3----|--------3--3-------------|
-----------------------------------------------------|-------------------------|
-----------------------------------------------------|-------------------------|

Natural harmonic pitch “E”
NH NH NH NH
Q S S E Q S S E Q S S E H


--------12---------------------12----------12--12----|-------12-12-------------|
-----------------------------------------------------|-------------------------|
-----------------------------------------------------|-------------------------|
-----------------------------------------------------|-------------------------|
-------3--------------------3---------3-3----|--------3--3-------------|
-----------------------------------------------------|-------------------------|
-----------------------------------------------------|-------------------------|
-------------------|-------------------|-------------------|-------------------|
-------------------|-------------------|-------------------|-------------------|
-------------------|-------------------|-------------------|-------------------|
-------------------|-------------------|-------------------|-------------------|
-------------------|-------------------|-------------------|-------------------|
-------------------|-------------------|-------------------|-------------------|
-------------------|-------------------|-------------------|-------------------|

Natural harm pitch “E”
NH NH NH NH
Q S S E Q S S E Q S S E H


--------12---------------------12----------12--12----|-------12-12-------------|
-----------------------------------------------------|-------------------------|
-----------------------------------------------------|-------------------------|
-----------------------------------------------------|-------------------------|
-------3--------------------3---------3-3----|--------3--3-------------|
-----------------------------------------------------|-------------------------|
-----------------------------------------------------|-------------------------|

Natural harm pitch “E”
NH NH NH NH
Q S S E Q S S E Q S S E H


--------12---------------------12----------12--12----|-------12-12-------------|
-----------------------------------------------------|-------------------------|
-----------------------------------------------------|-------------------------|
-----------------------------------------------------|-------------------------|
-------3--------------------3---------3-3----|--------3--3-------------|
-----------------------------------------------------|-------------------------|
-----------------------------------------------------|-------------------------|

[E] [E] [E] [E] [E] [E] [E] [E] [E] [E] [E] [E] [E] [E] [E] [E]


--10--10--10--10--10--10--10--10--|---9---9---9---9---9---9---9---9--|
--10--10--10--10--10--10--10--10--|--10--10--10--10--10--10--10--10--|
----------------------------------|----------------------------------|
----------------------------------|----------------------------------|
----------------------------------|----------------------------------|
----------------------------------|----------------------------------|
----------------------------------|----------------------------------|

[E] [E] [E] [E] [E] [E] [E] [E] [E] [E] [E] [E] [E] [E] [E] [E]


--10--10--10--10--10--10--10--10--|--7--7--7--7--7--7--7--7--|
--10--10--10--10--10--10--10--10--|--8--8--8--8--8--8--8--8--|
----------------------------------|--------------------------|
----------------------------------|--------------------------|
----------------------------------|--------------------------|
----------------------------------|--------------------------|
----------------------------------|--------------------------|

[E] [E] [E] [E] [E] [E] [E] [E] [E] [E] [E] [E] [E] [E] [E] [E]


--10--10--10--10--10--10--10--10--|---9---9---9---9---9---9---9---9--|
--10--10--10--10--10--10--10--10--|--10--10--10--10--10--10--10--10--|
----------------------------------|----------------------------------|
----------------------------------|----------------------------------|
----------------------------------|----------------------------------|
----------------------------------|----------------------------------|
----------------------------------|----------------------------------|

[E] [E] [E] [E] [E] [E] [E] [E] [E] [E] [E] [E] [E] [E] [E] [E]


--10--10--10--10--10--10--10--10--|--7--7--7--7--7--7--7--7--|
--10--10--10--10--10--10--10--10--|--8--8--8--8--8--8--8--8--|
----------------------------------|--------------------------|
----------------------------------|--------------------------|
----------------------------------|--------------------------|
----------------------------------|--------------------------|
----------------------------------|--------------------------|

[E] [E] [E] [E] [E] [E] [E] [E] [E] [E] [E] [E] [E] [E] [E] [E]


--10--10--10--10--10--10--10--10--|---9---9---9---9---9---9---9---9--|
--10--10--10--10--10--10--10--10--|--10--10--10--10--10--10--10--10--|
----------------------------------|----------------------------------|
----------------------------------|----------------------------------|
----------------------------------|----------------------------------|
----------------------------------|----------------------------------|
----------------------------------|----------------------------------|

[E] [E] [E] [E] [E] [E] [E] [E] [E] [E] [E] [E] [E] [E] [E] [E]


--10--10--10--10--10--10--10--10--|--7--7--7--7--7--7--7--7--|
--10--10--10--10--10--10--10--10--|--8--8--8--8--8--8--8--8--|
----------------------------------|--------------------------|
----------------------------------|--------------------------|
----------------------------------|--------------------------|
----------------------------------|--------------------------|
----------------------------------|--------------------------|

[E] [E] [E] [E] [E] [E] [E] [E] [E] [E] [E] [E] [E] [E] [E] [E]


--10--10--10--10--10--10--10--10--|---9---9---9---9---9---9---9---9--|
--10--10--10--10--10--10--10--10--|--10--10--10--10--10--10--10--10--|
----------------------------------|----------------------------------|
----------------------------------|----------------------------------|
----------------------------------|----------------------------------|
----------------------------------|----------------------------------|
----------------------------------|----------------------------------|

[E] [E] [E] [E] [E] [E] [E] [E] [E] [E] [E] [E] [E] [E] [E] [E]


--10--10--10--10--10--10--10--10--|--7--7--7--7--7--7--7--7--|
--10--10--10--10--10--10--10--10--|--8--8--8--8--8--8--8--8--|
----------------------------------|--------------------------|
----------------------------------|--------------------------|
----------------------------------|--------------------------|
----------------------------------|--------------------------|
----------------------------------|--------------------------|
-------------------|-------------------|-------------------|-------------------|
-------------------|-------------------|-------------------|-------------------|
-------------------|-------------------|-------------------|-------------------|
-------------------|-------------------|-------------------|-------------------|
-------------------|-------------------|-------------------|-------------------|
-------------------|-------------------|-------------------|-------------------|
-------------------|-------------------|-------------------|-------------------|
-------------------|-------------------|-------------------|-------------------|
-------------------|-------------------|-------------------|-------------------|
-------------------|-------------------|-------------------|-------------------|
-------------------|-------------------|-------------------|-------------------|
-------------------|-------------------|-------------------|-------------------|
-------------------|-------------------|-------------------|-------------------|
-------------------|-------------------|-------------------|-------------------|
-------------------|-------------------|-------------------|-------------------|
-------------------|-------------------|-------------------|-------------------|
-------------------|-------------------|-------------------|-------------------|
-------------------|-------------------|-------------------|-------------------|
-------------------|-------------------|-------------------|-------------------|
-------------------|-------------------|-------------------|-------------------|
-------------------|-------------------|-------------------|-------------------|
-------------------|-------------------|-------------------|-------------------|
-------------------|-------------------|-------------------|-------------------|
-------------------|-------------------|-------------------|-------------------|
-------------------|-------------------|-------------------|-------------------|
-------------------|-------------------|-------------------|-------------------|
-------------------|-------------------|-------------------|-------------------|
-------------------|-------------------|-------------------|-------------------|

[E] [E] [E] [E] [E] [E] [E] [E] [E] [E] [E] [E] [E] [E] [E] [E]


--10--10--10--10--10--10--10--10--|---9---9---9---9---9---9---9---9--|
--10--10--10--10--10--10--10--10--|--10--10--10--10--10--10--10--10--|
----------------------------------|----------------------------------|
----------------------------------|----------------------------------|
----------------------------------|----------------------------------|
----------------------------------|----------------------------------|
----------------------------------|----------------------------------|

[E] [E] [E] [E] [E] [E] [E] [E] [E] [E] [E] [E] [E] [E] [E] [E]


--10--10--10--10--10--10--10--10--|--7--7--7--7--7--7--7--7--|
--10--10--10--10--10--10--10--10--|--8--8--8--8--8--8--8--8--|
----------------------------------|--------------------------|
----------------------------------|--------------------------|
----------------------------------|--------------------------|
----------------------------------|--------------------------|
----------------------------------|--------------------------|

[E] [E] [E] [E] [E] [E] [E] [E] [E] [E] [E] [E] [E] [E] [E] [E]


--10--10--10--10--10--10--10--10--|---9---9---9---9---9---9---9---9--|
--10--10--10--10--10--10--10--10--|--10--10--10--10--10--10--10--10--|
----------------------------------|----------------------------------|
----------------------------------|----------------------------------|
----------------------------------|----------------------------------|
----------------------------------|----------------------------------|
----------------------------------|----------------------------------|

[E] [E] [E] [E
] [E] [E] [E] [E] [E] [E] [E] [E] [E] [E] [E] [E]


--10--10--10--10--10--10--10--10--|--7--7--7--7--7--7--7--7--|
--10--10--10--10--10--10--10--10--|--8--8--8--8--8--8--8--8--|
----------------------------------|--------------------------|
----------------------------------|--------------------------|
----------------------------------|--------------------------|
----------------------------------|--------------------------|
----------------------------------|--------------------------|

[E] [E] [E] [E] [E] [E] [E] [E] [E] [E] [E] [E] [E] [E] [E] [E]


--10--10--10--10--10--10--10--10--|---9---9---9---9---9---9---9---9--|
--10--10--10--10--10--10--10--10--|--10--10--10--10--10--10--10--10--|
----------------------------------|----------------------------------|
----------------------------------|----------------------------------|
----------------------------------|----------------------------------|
----------------------------------|----------------------------------|
----------------------------------|----------------------------------|

[E] [E] [E] [E] [E] [E] [E] [E] [E] [E] [E] [E] [E] [E] [E] [E]


--10--10--10--10--10--10--10--10--|--7--7--7--7--7--7--7--7--|
--10--10--10--10--10--10--10--10--|--8--8--8--8--8--8--8--8--|
----------------------------------|--------------------------|
----------------------------------|--------------------------|
----------------------------------|--------------------------|
----------------------------------|--------------------------|
----------------------------------|--------------------------|

[E] [E] [E] [E] [E] [E] [E] [E] [E] [E] [E] [E] [E] [E] [E] [E]


--10--10--10--10--10--10--10--10--|---9---9---9---9---9---9---9---9--|
--10--10--10--10--10--10--10--10--|--10--10--10--10--10--10--10--10--|
----------------------------------|----------------------------------|
----------------------------------|----------------------------------|
----------------------------------|----------------------------------|
----------------------------------|----------------------------------|
----------------------------------|----------------------------------|

[E] [E] [E] [E] [E] [E] [E] [E] [E] [E] [E] [E] [E] [E] [E] [E]


--10--10--10--10--10--10--10--10--|--7--7--7--7--7--7--7--7--|
--10--10--10--10--10--10--10--10--|--8--8--8--8--8--8--8--8--|
----------------------------------|--------------------------|
----------------------------------|--------------------------|
----------------------------------|--------------------------|
----------------------------------|--------------------------|
----------------------------------|--------------------------|

[E] [E] [E] [E] [E] [E] [E] [E] [E] [E] [E] [E] [E] [E] [E] [E]


--10--10--10--10--10--10--10--10--|---9---9---9---9---9---9---9---9--|
--10--10--10--10--10--10--10--10--|--10--10--10--10--10--10--10--10--|
----------------------------------|----------------------------------|
----------------------------------|----------------------------------|
----------------------------------|---------------------------------

—————–

If you want to learn Collective Soul New Vibration ukulele chords, the most important basic ukulele chords to know are C chord, D chord, G chord, and Em chord. These set you up to play a a lot of songs, and each of them is easy to master.

Fyi, you may also search for another musical genres, including jazz ukulele chords, country music ukulele chords, pop ukulele chords, world music ukulele chords, and rock ukulele chords in this website.
Want to play another ukulele chords? Easy .. just click search menu in this place, you can search it by song title or by the artist.
Enjoy!