Inside Out played in guitar may be one of the perfect music you liked. Not only hearing the music but you can play “Inside Out by Reveille” using guitar too. Yes .. this song by may also be played by that instrument. But, first thing, you must know its guitar chords.

If you are searching for Inside Out guitar chords, you already come to the right page.

Yups, guitar is hard to study in the beginning, but gets easier the more time you stick with it. The more you practice, the simple guitar will feel to play the music.

“Inside Out” guitar chords has rhythm and included in “Bleed the Sky (2001)” album.

Inside Out by Reveille Guitar Chords

Author/Artist: Reveille
Title: Inside Out
Album: Bleed the Sky
Transcribed by: Jason Johnson
Email: [email protected]

This song is awesome

Tuning (Db,Ab,Db,Gb,Bb,Eb)

harmonic
p.m. palm mute
h hammer on
p pull off
\\ slide

intro: with delay


------------------------------------------------------------------------------
------------------------------------------------------------------------------
------------------------------------------------------------------------------
-4-7-7-7-7-9--3-7-7-7-9--4-7-7-7-9--3--9--7-----------------------------------
------------------------------------------------------------------------------
------------------------------------------------------------------------------

intro 2:


------------------------------------------------------------------------------
------------------------------------------------------------------------------
------------------------------------------------------------------------------
-4-4-4-4-7-7-7-9--3-3-3-3-7-7-7-9--4-4-4-4-7-7-7-9--3--9--7-------------------
-4-4-4-4-7-7-7-9--3-3-3-3-7-7-7-9--4-4-4-4-7-7-7-9--3--9--7-------------------
-4-4-4-4-7-7-7-9--3-3-3-3-7-7-7-9--4-4-4-4-7-7-7-9--3--9--7-------------------

verse:


------------------------------------------------------------------------------
------------------------------------------------------------------------------
------------------------------------------------------------------------------
-4-4-4-4-7-7-7-9--3-3-3-3-7-7-7-9--4-4-4-4-7-7-7-9--3-3-3-3-9-7---------------
------------------------------------------------------------------------------
------------------------------------------------------------------------------

56:


------------------------------------------------------------------------------
--19---21-----------15-14-----------------------------------------------------
-----------19---18------------------------------------------------------------
------------------------------------------------------------------------------
------------------------------------------------------------------------------
------------------------------------------------------------------------------

chorus: (just an extra 3)


------------------------------------------------------------------------------
------------------------------------------------------------------------------
------------------------------------------------------------------------------
-4-4-4-4-7-7-7-9--3-3-3-3-7-7-7-9--4-4-4-4-7-7-7-9--3--3--9--7----------------
-4-4-4-4-7-7-7-9--3-3-3-3-7-7-7-9--4-4-4-4-7-7-7-9--3--3--9--7----------------
-4-4-4-4-7-7-7-9--3-3-3-3-7-7-7-9--4-4-4-4-7-7-7-9--3--3--9--7----------------

vback to verse:


------------------------------------------------------------------------------
------------------------------------------------------------------------------
------------------------------------------------------------------------------
-4-4-4-4-7-7-7-9--3-3-3-3-7-7-7-9--4-4-4-4-7-7-7-9--3-3-3-3-9-7---------------
------------------------------------------------------------------------------
------------------------------------------------------------------------------

1:43


------------------------------------------------------------------------------
--19---21-----------15-14-----------------------------------------------------
-----------19---18------------------------------------------------------------
------------------------------------------------------------------------------
------------------------------------------------------------------------------
------------------------------------------------------------------------------

chorus:


------------------------------------------------------------------------------
------------------------------------------------------------------------------
------------------------------------------------------------------------------
-4-4-4-4-7-7-7-9--3-3-3-3-7-7-7-9--4-4-4-4-7-7-7-9--3--3--9--7----------------
-4-4-4-4-7-7-7-9--3-3-3-3-7-7-7-9--4-4-4-4-7-7-7-9--3--3--9--7----------------
-4-4-4-4-7-7-7-9--3-3-3-3-7-7-7-9--4-4-4-4-7-7-7-9--3--3--9--7----------------

2:20


------------------------------------------------------------------------------
------------------------------------------------------------------------------
------------------------------------------------------------------------------
-0h6-0-0-0--0h6-0-0-0--0h6-0-0-0---0h2h3p2-0h2h3p2----------------------------
-0h6-0-0-0--0h6-0-0-0--0h6-0-0-0---0h2h3p2-0h2h3p2----------------------------
-0h6-0-0-0--0h6-0-0-0--0h6-0-0-0---0h2h3p2-0h2h3p2----------------------------

chorus:


------------------------------------------------------------------------------
------------------------------------------------------------------------------
------------------------------------------------------------------------------
-4-4-4-4-7-7-7-9--3-3-3-3-7-7-7-9--4-4-4-4-7-7-7-9--3--3--9--7----------------
-4-4-4-4-7-7-7-9--3-3-3-3-7-7-7-9--4-4-4-4-7-7-7-9--3--3--9--7----------------
-4-4-4-4-7-7-7-9--3-3-3-3-7-7-7-9--4-4-4-4-7-7-7-9--3--3--9--7----------------

end on a -4-
[-4-]
[-4-]
—————–

If you want to be master of Reveille Inside Out guitar chords, you should to look at the 5 major chords, C major, A major, G major, E major, and D major. The reason we use all major chords is that the minor versions of any of these chords only lack few adjustments. Each one of those minor chords is entirely based on its major counterpart.

Fyi, you can also find another musical genres, including jazz guitar chords, country music guitar chords, pop guitar chords, world music guitar chords, and rock guitar chords in this web.
Want to play another guitar chords? Simple .. just click search menu in this page, you may find it by song title or by the artist.
Have Fun!