I’ll Follow the Sun in guitar acoustic version can be one of your liked music. Not only enjoying the music but you can play “I’ll Follow the Sun by The Motions” using guitar too. Yup .. this song by may also be played by that instrument. But, first thing, you must know its guitar chords.

Whether you are looking for I’ll Follow the Sun guitar chords, you have visit to the right site.

Yups, guitar is hard to study in the beginning, but gets easier the longer you stick with it. The more you practice, the easier guitar will feel to play the music.

“I’ll Follow the Sun” guitar chords has rhythm and included in “” album.

I’ll Follow the Sun by The Motions Guitar Chords

INTRO
[Dm]
VERSE 1
[Dm]I’ll [Dmsus6b5]follow the [Dm]sun
[Dm]It’s the only [Dmsus6b5]thing to [Dm]do
[F]Leaving[Dm] my [G]memories[A] be[Dm]hind

[G] [A]
VERSE 2
[Dm]I’ll [Dmsus6b5]follow the [Dm]sun
[Dm]till the [Dmsus6b5]end of [Dm]time
[F]No more [Dm]tears, [G]no more [A]pains for [Dm]me

[G] [A]
VERSE 3
[Dm]I’ll [Dmsus6b5]follow the [Dm]sun
[Dm]Birds will [Dmsus6b5]tell me [Dm]how
[F]Suddenly[Dm] it [G]seems my [A]eyes are [Dm]dry

[G] [A]
GUITAR SOLO
[Dm] [Dms6b5] [Dm] [Dm] [Dms6b5] [Dm]


e|-0-1----------0-1---------0-1----------5-----------|
B|-3-3---0-3----3-3---------3-3---0-3----3-----------|
G|-------4-4----------------------4-4----------------|
D|---------------------------------------------------|
A|---------------------------------------------------|
E|---------------------------------------------------|

[F] [Dm] [G] [A] [Dm] [G] [A] [G]


e|-3/5-3\1---1-3/5-3\1---1-3/5-3\1---1p0-------------------------------------------------|
B|---------3-----------3-----------3------------1/3--3--3--3--3---------------1/3--3--3--|
G|----------------------------------------2--2-------------------2p1-0--2--2-------------|
D|---------------------------------------------------------------------------------------|
A|---------------------------------------------------------------------------------------|
E|---------------------------------------------------------------------------------------|

MODULATION
[Cm] [Dms6b5] [Cm] [Cm] [Dms6b5] [Cm]


e|--------------------------------------------------|
B|--------------------------------------------------|
G|--------------------------------------------------|
D|-5--5--4--4-45--5--5-5-5-5--5--4--4-45--5--5-5-5--|
A|--33-33-------33-33-3-3-3-33-33-------33-33-3-3-3-|
E|--------22-2--------------------22-2--------------|

[Eb] [Cm] [F] [G] [Cm] [F] [G]


e|---------------------------------------------------------------------------------------|
B|-6/8-6\4---4-6/8-6\4---4-6/8-6\4---4-3-------------------------------------------------|
G|---------5-----------5-----------5----0--0--0-3/5--5--5--5--5---------------3h5--3-----|
D|---------------------------------------------------------------5p4-3--5--5----------5--|
A|---------------------------------------------------------------------------------------|
E|---------------------------------------------------------------------------------------|

VERSE 4
[Cm]I’ll [Cmsus6b5]follow the [Cm]sun
[Cm]It’s the only [Cmsus6b5]thing to [Cm]do
[Eb]Leaving[Cm] my [F]memories[G] be[Cm]hind

[F] [G]
VERSE 5
[Cm]I’ll [Cmsus6b5]follow the [Cm]sun
[Cm]till the [Cmsus6b5]end of [Cm]time
[Eb]No more [Cm]tears, [F]no more [G]pains for [Cm]me

[F] [G]
VERSE 6
[Cm]I’ll [Cmsus6b5]follow the [Cm]sun
[Cm]Words will [Cmsus6b5]tell me [Cm]how
Cause [Eb]suddenly[Cm] it [F]seems my [G]eyes are [Cm]dry

OUTRO
[F] [G] My eyes are [Cm]dry
[F] [G] My eyes are [Cm]dry
[F] [G] My eyes are [Cm]dry
[F] [G] My eyes are [Cm]dry
—————–

If you want to be master of The Motions I’ll Follow the Sun guitar chords, you should to learn the 5 major chords, C major, A major, G major, E major, and D major. The reason we take all major chords is that the minor versions of any of these chords just require few adjustments. Each one of those minor chords is absolutely based on its major counterpart.

By the way, you can also search for another musical genres, including jazz guitar chords, country music guitar chords, pop guitar chords, world music guitar chords, and rock guitar chords in this site.
Searching for another guitar chords? Simple .. just click search button in this page, you may find it by song title or by the artist.
Have Fun!