Gloves played in ukulele may be one of the good music you liked. Not only enjoying the song but you can play “Gloves by Salt the Wound” using ukulele too. Yup .. this music by can also be played by that instrument. But, before that, you must know its ukulele chords.

Whether you are looking for Gloves ukulele chords, you have visit to the right page.

Yups, ukulele is tough to study in the beginning, but gets easier the longer you stick with it. The more you proceeding, the simple ukulele will feel to play that song.

“Gloves” ukulele chords has rhythm and included in “Carnal Repercussions (2008)” album.

Gloves by Salt the Wound ukulele Chords

READ BEFORE PLAYING

AIM x Itz Rick x

This sounds about 98% correct. Tuning is in Drop A# but I’m writing in standard
tuning for the tab to make the tabs even. The first few seconds of the song I
can’t really make out because it just sounds like slop to me so I’ll just start from 0:06.

Drop A#

[C]
[G]
[D#]
[A#]
[F]
[A#]

Legend:
. Palm Mute
Pinch Harmonic
t Tremelo pick

(0:06-0:11)


E--------------------------------------------------------|
B--------------------------------------------------------|
G--------------------------------------------------------|
D-3---------------------------111-----1-111--------------|
A-3-333555666888666555-3h5p3--111-1-3-1-111-5--3---1h3p1-|
E-3---------------------------111--1--1-111--11-11-------|

… . . … .. ..
(0:11-0:14)


E--------------------------------|
B--------------------------------|
G--------------------------------|
D-333-------333--------3232------|
A-333-3h5p3-333-3h5p3--3232-3---|
E-333-------333--------3232--2--|

… … ….

~~~~~~~~~~~~~~~~~~~~~~~~~~~~~~~~~~~~~~~~~~~~~~~~~~~~~~~~~~~~~~~~~~~~~~~~~~~~~~

(0:14-0:16)


E--------------------------|
B--------------------------| --|
G--------------------------| |
D--------------------------| |
A----5-6------8--6--5h6p5--| |
E-000-0--0-000-00-00-------| |

… . . … .. .. |
|
(0:16-0:21) |


E--------------------------------------------------------| |
B--------------------------------------------------------| |
G--------------------------------------------------------| --|
D-3---------------------------111-----1-111--------------| |--Repeat twice
A-3-333555666888666555-3h5p3--111-1-3-1-111-5--3---1h3p1-| |
E-3---------------------------111--1--1-111--11-11-------| |

… . . … .. .. |
(0:21-0:23) |


E--------------------------------| |
B--------------------------------| |
G--------------------------------| |
D-333-------333--------3232------| --|
A-333-3h5p3-333-3h5p3--3232-3---|
E-333-------333--------3232--2--|

… … ….

The third time is the same except the tremelo picking in the second bar is
switched to alternate picking. Listen to the song to understand what I am saying.

~~~~~~~~~~~~~~~~~~~~~~~~~~~~~~~~~~~~~~~~~~~~~~~~~~~~~~~~~~~~~~~~~~~~~~~~~~~~~~

(0:38-0:41)


E-------------------|
B-------------------|
G-------------------|
D-------------------|
A-5------5------3~--|
E-3-0000-3-0000-1~--|

…. ….

(0:41-0:45)


E-----------------------------------|
B-----------------------------------| --|
G-----------------------------------| |
D-----------------------------------| |
A------5--3---------3h5p3----1h3p1--| |
E-0-000-00-00000-555------111-------| |

. … .. ….. … … |
|
(0:45-0:49) |– Repeat twice.


E-------------------------------| |
B-------------------------------| |
G-------------------------------| |
D-------------------------------| |
A------5--3-----8--6--5h6p5-3--| --|
E-0-000-00-00000-00-00----------|

. … .. ….. .. ..

~~~~~~~~~~~~~~~~~~~~~~~~~~~~~~~~~~~~~~~~~~~~~~~~~~~~~~~~~~~~~~~~~~~~~~~~~~~~~~
Repeat this section twice.

(0:54-0:57)


E--------------------------|
B--------------------------|
G--------------------------|
D--------------------------|
A----5-6------8--6--5h6p5--|
E-000-0--0-000-00-00-------|

… . . … .. ..

(0:57-1:02)


E--------------------------------------------------------|
B--------------------------------------------------------|
G--------------------------------------------------------|
D-3---------------------------111-----1-111--------------|
A-3-333555666888666555-3h5p3--111-1-3-1-111-5--3---1h3p1-|
E-3---------------------------111--1--1-111--11-11-------|

… . . … .. ..
(1:02-1:04)


E--------------------------------|
B--------------------------------|
G--------------------------------|
D-333-------333--------3232------|
A-333-3h5p3-333-3h5p3--3232-3---|
E-333-------333--------3232--2--|

… … ….
~~~~~~~~~~~~~~~~~~~~~~~~~~~~~~~~~~~~~~~~~~~~~~~~~~~~~~~~~~~~~~~~~~~~~~~~~~~~~~

(1:13-1:18)


E------------------------------|
B------------------------------|
G------------------------------| --|
D------------------------------| |
A-------------6t--8t--10t--8t--| |
E-0t-1t-3t--5t--6t--8t---6t----| |

. . . . |
(1:18-1:22) |–Repeat twice.


E-----------------------------| |
B-----------------------------| |
G-----------------------------| |
D-----------------------------| |
A-------------6t--8t--6t--5t--| --|
E-0t-1t-3t--5t--6t--5t--3t----|

. . . .
~~~~~~~~~~~~~~~~~~~~~~~~~~~~~~~~~~~~~~~~~~~~~~~~~~~~~~~~~~~~~~~~~~~~~~~~~~~~~~

!~!~!~!~!~!~!~!~!BREAKDOWN~!~!~!~!~!~!~!~!~!

(1:30)


E--------------------------------|
B--------------------------------|
G--------------------------------|
D-000--000-000-000---000-000-0~--|
A-000--000-000-000---000-000-0~--|
E-000--000-000-000---000-000-0~--|

… … … … … …

(1:39)


E----------------------------------|
B----------------------------------| WHEN I'M AWAKE AND DREAMING
G----------------------------------| WHEN LIFE HAS LOST ALL MEANING
D-00000000---00000000---00000000---|
A-00000000---00000000---00000000---|
E-00000000---00000000---00000000---|

…….. …….. ……..


E--------------------------------|
B--------------------------------|
G--------------------------------|
D-000--000-000-000---000-000-0~--| --Repeat twice.
A-000--000-000-000---000-000-0~--|
E-000--000-000-000---000-000-0~--|

… … … … … …

~~~~~~~~~~~~~~~~~~~~~~~~~~~~~~~~~~~~~~~~~~~~~~~~~~~~~~~~~~~~~~~~~~~~~~~~~~~~~~


E--------------------------|
B--------------------------| --|
G--------------------------| |
D--------------------------| |
A----5-6------8--6--5h6p5--| |
E-000-0--0-000-00-00-------| |

… . . … .. .. |
|


E--------------------------------------------------------| |
B--------------------------------------------------------| |
G--------------------------------------------------------| --|
D-3---------------------------111-----1-111--------------| |--Repeat twice
A-3-333555666888666555-3h5p3--111-1-3-1-111-5--3---1h3p1-| |
E-3---------------------------111--1--1-111--11-11-------| |

… . . … .. .. |
|
|


E--------------------------------| |
B--------------------------------| |
G--------------------------------| |
D-333-------333--------3232------| --|
A-333-3h5p3-333-3h5p3--3232-3---|
E-333-------333--------3232--2--|

… … ….

~~~~~~~~~~~~~~~~~~~~~~~~~~~~~~~~~~~~~~~~~~~~~~~~~~~~~~~~~~~~~~~~~~~~~~~~~~~~~~


E-----------------------------------|
B-----------------------------------| --|
G-----------------------------------| |
D-----------------------------------| |
A------5--3---------3h5p3----1h3p1--| |
E-0-000-00-00000-555------111-------| |

. … .. ….. … … |
|
|– Repeat until end.


E-------------------------------| |
B-------------------------------| |
G-------------------------------| |
D-------------------------------| |
A------5--3-----8--6--5h6p5-3--| --|
E-0-000-00-00000-00-00----------|

. … .. ….. .. ..

E—–|
B—–|
G—–|
D–0–|
A–0–|
E–0–|
.

That’s it. Feel free to comment on anything you feel is wrong. Sources of
communication are listed up top
to reach me.
—————–

If you want to be master of Salt the Wound Gloves ukulele chords, the most important basic ukulele chords to know are C chord, D chord, G chord, and Em chord. These set you up to play a ton of musics, and each of them is easy to learn.

By the way, you can also look for another musical genres, including jazz ukulele chords, country music ukulele chords, pop ukulele chords, world music ukulele chords, and rock ukulele chords here.
Want to play another ukulele chords? Easy .. just click search button in this page, you may search it by song title or by the artist.
Have Fun!