Don’t Get Me Busted in guitar acoustic version maybe one of the perfect music you loved. Not only enjoying the music but you can play “Don’t Get Me Busted by The Donnas” using guitar too. Yup .. this song by can also be played by that device. But, first thing, you must know its guitar chords.

Whether you are searching for Don’t Get Me Busted guitar chords, you’ve visit to the best page.

Yes, guitar is tough to study in the beginning, but gets easier the longer you stick with it. The more you proceeding, the smooth guitar will feel to play Don’t Get Me Busted song.

“Don’t Get Me Busted” guitar chords has rhythm and included in “Turn 21 (2001)” album.

Don’t Get Me Busted by The Donnas Guitar Chords

The Donnas – Don’t Get Me Busted

Intro:

[E] [D] [G] [E] [D] [A] [E]


---------------------2--3-3--3--------------------2--------------|
---------------------3--3-3--3--------------------3-2-2----------|
---------------------2--0-0--0--------------------2-2-2----------|
-x-2-----------------0--0-0-----2-----------------0-2-2-------2--|
-x-2------2-------------2-2-----2------2------------0-0-------2--|
-x-0--0-4---3^-0-0-0----3-3-----0--0-4---3^-0-0-0---------3-2-0--|

PM. PM.

[D] [G] [E] [D] [A] [D] [A] [E]


----------------2--3-3--3--------------------2------------2--------------0----------|
----------------3--3-3--3--------------------3-2-2--2-----3-2-2----------0----------|
----------------2--0-0--0--------------------2-2-2--2-----2-2-2----------1----------|
----------------0--0-0-----2-----------------0-2-2--2-----0-2-2-------2--2----------|
-----2-------------2-2-----2------2------------0-0--0-0-0---0-0-------2-------------|
-0-4---3^-0-0-0----3-3-----0--0-4---3^-0-0-0----------------------3-2-0-------3-2-0-|

PM. PM. PM. PM…

Verse #1:

[E] [D] [E] [D] [E] [E] [D] [E] [D] [A] [E]


-----------------------------------------------------|
-----------------------------------------------------|
-----9\7-7-9---7--7------9----9\7-7-9---7--7------9--|
-----9\7-7-9---7--7-7--7-9----9\7-7-9---7--7-7--7-9--|
-----7\5-5-7---5--5-0--0-7----7\5-5-7---5--5-7--7-7--|
-0-0---------0--------------0---------0------5--5----|

PM. PM PM PM

[E] [D] [E] [D] [E] [E] [D] [E] [D] [A]


------------------------------------------------|
------------------------------------------------|
-----9\7-7-9---7--7------9----9\7-7-9---7--7----|
-----9\7-7-9---7--7-7--7-9----9\7-7-9---7--7-7--|
-----7\5-5-7---5--5-0--0-7----7\5-5-7---5--5-7--|
-0-0---------0--------------0---------0------5--|

PM. PM PM PM

[B]


------------------------------------------------------------------------|
------------------------------------------------------------------------|
------------------------------------------------------------------------|
-9-9-9------------------------------------------------------------------|
-9-9-9--9-11-9-12-11--9--9-11-9-9-7-8-9--9-11-9-12-11--9--9-11-9-9------|
-7-7-7--7--7-7--7--7--7--7--7-7-7-5-6-7--7--7-7--7--7--7--7--7-7-7-3-2--|

Chorus #1:

[E] [D] [G] [E] [D] [A] [E]


-------------------2--3-3--3--------------------2--------------|
-------------------3--3-3--3--------------------3-2-2----------|
-------------------2--0-0--0--------------------2-2-2----------|
-2-----------------0--0-0-----2-----------------0-2-2-------2--|
-2------2-------------2-2-----2------2------------0-0-------2--|
-0--0-4---3^-0-0-0----3-3-----0--0-4---3^-0-0-0---------3-2-0--|

PM. PM.

[D] [G] [E] [D] [A] [D] [A] [E]


-----------------2--3-3--3--------------------2------------2--------------0----------|
-----------------3--3-3--3--------------------3-2-2--2-----3-2-2----------0----------|
-----------------2--0-0--0--------------------2-2-2--2-----2-2-2----------1----------|
-----------------0--0-0-----2-----------------0-2-2--2-----0-2-2-------2--2----------|
------2-------------2-2-----2------2------------0-0--0-0-0---0-0-------2-------------|
--0-4---3^-0-0-0----3-3-----0--0-4---3^-0-0-0----------------------3-2-0-------3-2-0-|

PM. PM. PM. PM…

Verse #2 verse #1

Chorus #2:

[E] [D] [G] [E] [D] [A] [E]


-------------------2--3-3--3--------------------2--------------|
-------------------3--3-3--3--------------------3-2-2----------|
-------------------2--0-0--0--------------------2-2-2----------|
-2-----------------0--0-0-----2-----------------0-2-2-------2--|
-2------2-------------2-2-----2------2------------0-0-------2--|
-0--0-4---3^-0-0-0----3-3-----0--0-4---3^-0-0-0---------3-2-0--|

PM. PM.

[D] [G] [E] [D] [A] [D] [A]


-----------------2--3-3--3--------------------2------------2--------------|
-----------------3--3-3--3--------------------3-2-2--2-----3-2-2----------|
-----------------2--0-0--0--------------------2-2-2--2-----2-2-2----------|
-----------------0--0-0-----2-----------------0-2-2--2-----0-2-2----------|
------2-------------2-2-----2------2------------0-0--0-0-0---0-0----------|
--0-4---3^-0-0-0----3-3-----0--0-4---3^-0-0-0----------------------5-6-7--|

PM. PM. PM.

Solo:


-----------------------------------------------------------------------------|
-------------------------------9---9------------9---9------------------------|
---------7---------------7---7-9^--9^9-7-9p7--7-9^--9^9-7-9-7----------------|
-/9-7-9----9~--/7-7-9-9---9----------------------------------9-7-/9~--9-9---|
-----------------------------------------------------------------------------|
-----------------------------------------------------------------------------|

harmonic


---------------------------------------------------------------------------|
-----------------------/10--10-9-7-9p7--9--7---7----7-9--------------------|
----------------7----7-/11--11-9-7-9p7--9--7---7----7-9--------------------|
---------/9-7-9----9-------------------------9----9------------------------|
---------------------------------------------------------------------------|
-/7~-7-5------------------------------------------------------------3-2-0--|

PM…

Verse #3 Verse #1

Chorus #3:

[E] [D] [G] [E] [D] [A] [E]


-------------------2--3-3--3--------------------2--------------|
-------------------3--3-3--3--------------------3-2-2----------|
-------------------2--0-0--0--------------------2-2-2----------|
-2-----------------0--0-0-----2-----------------0-2-2-------2--|
-2------2-------------2-2-----2------2------------0-0-------2--|
-0--0-4---3^-0-0-0----3-3-----0--0-4---3^-0-0-0---------3-2-0--|

PM. PM.

[E] [D] [G] [E] [D] [A] [E]


-------------------2--3-3--3--------------------2--------------|
-------------------3--3-3--3--------------------3-2-2----------|
-------------------2--0-0--0--------------------2-2-2----------|
-2-----------------0--0-0-----2-----------------0-2-2-------2--|
-2------2-------------2-2-----2------2------------0-0-------2--|
-0--0-4---3^-0-0-0----3-3-----0--0-4---3^-0-0-0---------3-2-0--|

PM. PM.

[E] [D] [G] [E] [D] [A] [E]


-------------------2--3-3--3--------------------2--------------|
-------------------3--3-3--3--------------------3-2-2----------|
-------------------2--0-0--0--------------------2-2-2----------|
-2-----------------0--0-0-----2-----------------0-2-2-------2--|
-2------2-------------2-2-----2------2------------0-0-------2--|
-0--0-4---3^-0-0-0----3-3-----0--0-4---3^-0-0-0---------3-2-0--|

[D] [G] [E] [D] [A]


-----------------2--3-3--3--------------------2--------|
-----------------3--3-3--3--------------------3-2-2--2-|
-----------------2--0-0--0--------------------2-2-2--2-|
-----------------0--0-0-----2-----------------0-2-2--2-|
------2-------------2-2-----2------2------------0-0--0-|
--0-4---3^-0-0-0----3-3-----0--0-4---3^-0-0-0----------|

[D] [A] [D] [A] [E]


----2------------2---------------|
----3-2-2--2-----3--2-2----------|
----2-2-2--2-----2--2-2----------|
----0-2-2--2-----0--2-2----------|
0-0---0-0--0-0-0----0-0-----2/9~-|
------------------------3-2-0----|

PM. PM.
—————–

If you want to learn The Donnas Don’t Get Me Busted guitar chords, you should to look at the 5 major chords, C major, A major, G major, E major, and D major. The reason we use all major chords is that the minor versions of any of these chords just lack few adjustments. Every of those minor chords is fully based on its major counterpart.

Btw, you can also look for another musical genres, including jazz guitar chords, country music guitar chords, pop guitar chords, world music guitar chords, and rock guitar chords in this place.
Want to play another guitar chords? Simple .. just click search button in this web, you can search it by song title or by the artist.
Enjoy!