Dance Epidemic played in guitar may be one of the perfect song you liked. Not only hearing the music but you can play “Dance Epidemic by Electric Six” using guitar too. Yeah .. this music by may also be played by that instrument. But, first thing, you must know its guitar chords.

Whether you are searching for Dance Epidemic guitar chords, you have visit to the best page.

Yeah,Ya, guitar is hard to study in the beginning, but gets easier the longer you stick with it. The more you practice, the easier guitar will feel to play the music.

“Dance Epidemic” guitar chords has rhythm and included in “Señor Smoke (2005)” album.

Dance Epidemic by Electric Six Guitar Chords

INTRO
[—–]
[Em] [Em] [Em] [D] [D] [D]


E|-------------------------------------------------5-------5-------|
B|-7h8-8-8---------8-------8-------7---------------7-------7-------|
G|-9---9-9---------9-------9-------7-x4------------7-------7-------| x2
D|-9---9-9---------9-------9-------7---------------7-------7-------|
A|-7---7-7---------7-------7-------5-------------------------------|
E|-----------------------------------------------------------------|

VERSE
[—–] Your body goes to waste every minute you don’t give it to me…
Em B C D A G \


E|-----------------------------------------------------------------| |
B|-7h8\------------------------------------------------------------| |
G|-9--\------------------------------------------------------------| |
D|-9--\------------------------------------------------------------| |
A|-7--\----------------------------5-------------------------------| |
E|-----------------7-------8-----------------------5-------3-------| |

| x2
Em Em Em D D D |


E|-------------------------------------------------5-------5-------| |
B|-7h8-8-8---------8-------8-------7---------------7-------7-------| |
G|-9---9-9---------9-------9-------7-x4------------7-------7-------| |
D|-9---9-9---------9-------9-------7---------------7-------7-------| |
A|-7---7-7---------7-------7-------5-------------------------------| |
E|-----------------------------------------------------------------| /

PRE-CHORUS 1


------------

Still on my mind…
[Em] [Em] [Em] [B] [G]


E|-----------------------------------------------------------------|
B|-8---------------8---------------8-------------------------------|
G|-9-x4------------9-x4------------9-x4----------------------------|
D|-9---------------9---------------9-------------------------------|
A|-7---------------7---------------7--------------(2)-(2)----------|
E|--------------------------------------------------------(3)-(3)--|

[Em] [Em] [Em] [D] [D]


E|-------------------------------------------------5-------5-------|
B|-8---------------8---------------8---------------7-------7-------|
G|-9-x4------------9-x4------------9-x4------------7-------7-------|
D|-9---------------9---------------9---------------7-------7-------|
A|-7---------------7---------------7-------------------------------|
E|-----------------------------------------------------------------|

PRE-CHORUS 2


------------

I want it so bad…
[C] [C] [D] [D] [D] [D]


E|---------------------------------5-------5-------5-------5-------|
B|-7/8-8-8---------8---------------7-------7-------7-------7-------|
G|-9-9-9-9---------9-x4------------7-------7-------7-------7-------|
D|-10101010--------10--------------7-------7-------7-------7-------|
A|-10101010--------10----------------------------------------------|
E|-----------------------------------------------------------------|

CHORUS


------

Baby!…
E5 B5 C5 D5 A5 G5 \


E|-----------------------------------------------------------------| |
B|-----------------------------------------------------------------| |
G|-9------------------------------7--------------------------------| |
D|-9---------------9------10------7---------------7-------5--------| |
A|-7---------------9------10------5---------------7-------5--------| |
E|-----------------7------8-----------------------5-------3--------| |

| x2
E5 B5 C5 D5 A5 G5 |


E|-----------------------------------------------------------------| |
B|-----------------------------------------------------------------| |
G|-----------------4-------5-------7-------------------------------| |
D|-2---------------4-------3-------7---------------7-------5-------| |
A|-2---------------2-------3-------5---------------7-------5-------| |
E|-0-----------------------------------------------5-------3-------| /

BREAK
[—–] It’s getting harder to breathe…
[E5] [C5]


E|---------------------------------|
B|---------------------------------|
G|-----------------5---------------| x3
D|-2---(2)-2---4---5---------------|
A|-2---------------3---------------|
E|-0-------------------------------|

SOLO
[—-]Same chord progression as chorus
(‘x’ is not a muted note but indicates (approx) 10 reps of the hammer on/pull off before a slide down)
[E5] [B5] [C5] [D5] [A5] [G5]


E|-----------------------------------------------------------------|
B|-----------------------------------------------------------------|
G|-----------------14b16b14-12-----11h12p11-x10\-------------------|
D|-----------------------------14----------------------------------|
A|-12b14b12-10-----------------------------------------------------|
E|-------------12--------------------------------------------------|

[E5] [B5] [C5] [D5] [A5] [G5]


E|-----------------------------------------------------------------|
B|-12~---15~---15~---15~---15~---15~---15~---15-12~----------------|
G|-14b16~--14b16-14b16-14b16-14b16-14b16-14b16--14b16~-------------|
D|-----------------------------------------------------------------|
A|-----------------------------------------------------------------|
E|-----------------------------------------------------------------|

[E5] [B5] [C5] [D5] [A5] [G5]


E|-12~-----------------------------10~-----------------------------|
B|-15b17~----------12------13------13b15~----------10------8-------|
G|-----------------14b16---16b17-------------------12b14---11b12---|
D|-----------------------------------------------------------------|
A|-----------------------------------------------------------------|
E|-----------------------------------------------------------------|

[E5] [B5] [C5] [D5] [A5] [G5]


E|-----------------------------------------------------------------|
B|-5~--------------------------15h17~-15h17-15h17--15h17-15~\------|
G|-7b9~------------------------------------------------------------|
D|-----------------------------------------------------------------|
A|-----------------------------------------------------------------|
E|-----------------------------------------------------------------|

|^^^^^^^^^second guitar^^^^^^^^^|
OUTRO
[—–]
[Em] [Em] [Em] [B] [G]


E|-12--------------12--------------12------------------------------|
B|-12-x4-----------12-x4-----------12-x4---------------------------|
G|-12--------------12--------------12------------------------------|
D|-14--------------14--------------14------------------------------|
A|------------------------------------------------(2)-(2)----------|
E|--------------------------------------------------------(3)-(3)--|

[E5]


E|-----------------||
B|-----------------||
G|-----------------||
D|-2---------------||
A|-2---------------||
E|-0---------------||

FILLS
[—–]”Wilshire & Bundy…”


E|-----------------------------------------------------------------|
B|-15b17---15b17---------------------------------------------------|
G|-----------------14b16~----------14b16----14----12b14~-----------|
D|-----------------------------------------------------------------|
A|-----------------------------------------------------------------|
E|-----------------------------------------------------------------|

Song structure|-(x2)|-INTRO
| |-VERSE
| |-PRE-CHORUS 1
| |-PRE-CHORUS 2
| |-CHORUS
|
|-BREAK
|-PRE-CHORUS 2
|-SOLO
|-CHORUS
|-OUTRO
—————–

If you want to study Electric Six Dance Epidemic guitar chords, you have to look at the 5 major chords, C major, A major, G major, E major, and D major. The reason we take all major chords is that the minors of any of these chords just require few adjustments. Every of those minor chords is completely based on its major counterpart.

For your info, you can also look for another musical genres, including jazz guitar chords, country music guitar chords, pop guitar chords, world music guitar chords, and rock guitar chords in this place.
Want to play another guitar chords? Simple .. just click search button in this site, you may find it by song title or by the artist.
Enjoy!