Cherry played in ukulele might be one of the good music you liked. Not only enjoying the song but you can play “Cherry by Moose Blood” using ukulele too. Yup .. this song by may also be played by that device. But, before that, you must know its ukulele chords.

When you are searching for Cherry ukulele chords, you just visit to the best place.

Yes, ukulele is tough to study in the beginning, but gets easier the longer you stick with it. The more you practice, the simple ukulele will feel to play that song.

“Cherry” ukulele chords has rhythm and included in “I’ll Keep You in Mind, From Time to Time (2014)” album.

Cherry by Moose Blood ukulele Chords

[E] [C#] [B] [A]


E|---x---------x---------x---------x---I
B|---x---------x---------x---------x---I
G|---0---------x---------x---------x---I
D|---7---------0---------0---------0---I
A|---5---------9---------7---------5---I
E|---x---------7---------5---------3---I

How I play it is I ply the root note 3 times, then strum through the 3 note chord once like this:

[E]


E|-------------------------------------I
B|-------------------------------------I
G|--------0-------0-------0-------0----I
D|--------7-------7-------7-------7----I
A|--5-5-5-5-5-5-5-5-5-5-5-5-5-5-5-5----I
E|-------------------------------------I

[C#] [B]


E|-------------------------------------I
B|-------------------------------------I
G|-------------------------------------I
D|--------0-------0-------0-------0----I
A|--------9-------9-------7-------7----I
E|--7-7-7-7-7-7-7-7-5-5-5-5-5-5-5-5----I

Then during the chorus is goes
[A] [B]


E|-------------------------------------I
B|-------------------------------------I
G|-------------------------------------I
D|--------0-------0-------0-------0----I
A|--------5-------5-------7-------7----I
E|--3-3-3-3-3-3-3-3-5-5-5-5-5-5-5-5----I

And that’s basically it, chord placement goes like:

E, C#, B (Repeat)

(Verse)

[E]There’s only one place that I wanna be,
[C#]It’s home with you, girl, s[B]o I can hear you breathe.
[E]With your hair up like you do,
And that [C#]face that you give m[B]e when you’ve missed me.

[E]And I’ve missed our girl so god damn much,
[C#]I’ve smoked a lot and I f[B]eel so rough.
[E]Guess this is just what I wanna do,
[C#]Keeping half-smoked smokes and s[B]inging to half-filled rooms.

(Chorus)

[A]I was young and irresponsible
[B]About a year ago and it’s impossible to tell
[A]If my hands will ever warm up
[B]I don’t believe in growing up but

(Verse)
[E]Look at me now, I’m engaged to be married,
[C#]I’m only 23 and I’ve got [B]myself a family.
[E]She’s not mine and she never will be,
[C#]I’m reminded every day.[B]
[E]She’s not mine and it fking kills me,
[C#]She won’t look at me that[B] way

(Chorus)

[A]I was young and irresponsible
[B]About a year ago and it’s impossible to tell
[A]If my hands will ever warm up
[B]I don’t believe in growing up

(ends with A)
—————–

If you wanna learn Moose Blood Cherry ukulele chords, the most important basic ukulele chords to know are C chord, D chord, G chord, and Em chord. These set you up to play a ton of songs, and each of them is easy to master.

By the way, you may also search for another musical genres, including jazz ukulele chords, country music ukulele chords, pop ukulele chords, world music ukulele chords, and rock ukulele chords in this page.
Wanna play another ukulele chords? Simple .. just use search menu in this web, you may find it by song title or by the artist.
Have Fun!