Bears played in ukulele maybe one of the good music you liked. Not only hearing the music but you can play “Bears by Lyle Lovett” using ukulele too. Yup .. this music by can also be played by that instrument. But, before that, you must know its ukulele chords.

If you are searching for Bears ukulele chords, you already visit to the best page.

Yeah,Ya, ukulele is not easy to study in the beginning, but gets easier the more time you stick with it. The more you practice, the smooth ukulele will feel to play that music.

“Bears” ukulele chords has rhythm and included in “Step Inside This House (1998)” album.

Bears by Lyle Lovett ukulele Chords

BEARS (Steven Fromholz, 1975)
performed by Lyle Lovett on STEP INSIDE THIS HOUSE (1998)
transcribed by Mark Albert [email protected]

Key of Ab, capo 1

suggested chord fingerings

[G] [Em7] [CaddD] [F6/9]


|--3--| |--3--| |--3--| |--3--|
|--3--| |--3--| |--3--| |--3--|
|--0--| |--0--| |--0--| |--0--|
|--0--| |--0--| |--2--| |--3--|
|--2--| |--2--| |--3--| |-----|
|--3--| |--0--| |-----| |-----|

CHORD CHART
[G] [Em] [2C] [F] [C] [2G]

INTRO (acoustic guitar):
___ ___
| | | | | | | | | | | | | | | | | |
| | | | | | | | | | | | | | | | | |


|-----3---------3---|-----3---------3---|----3-------|-------------|
|-----3---------3---|-----3---------3---|----3-------|-------------|
|-----0---------0---|-----0---------0---|----0--/--/-|-/--/--/--/--|
|-----0---------0---|-----0---------0---|----2-------|-------------|
|--------0---2------|--------0---2------|-3----------|-------------|
|-3-------\/--------|-0-------\/--------|--------------------------|

[H] [H]
___ ___
| | | | | | | | | | | | | | | | | |
| | | | | | | | | | | | | | | | | |


|--------3-------3--|--------3-------3--|----3-------|-------------|
|--------3-------3--|--------3-------3--|----3-------|-------------|
|--------0-------0--|--------0-------0--|----0--/--/-|-/--/--/--/--|
|-2---3------3------|-0---2------2------|-0----------|-------------|
|--\/---------------|--\/---------------|------------|-------------|
|--H----------------|---H---------------|--------------------------|

[G]Some folks say there [Em]ain’t no bears in [C]Arkansas
[F]Some folks never seen a [C]bear at a[G]ll
[G]Some folks say that [Em]bears go around eating [C]babies raw
[F]Some folks got a [C]bear across the [G]hall

[G]Some folks say that [Em]bears go around [C]smelling bad
[F]Others say that a [C]bear is honey [G]sweet
[G]Some folks say this [Em]bear’s the best I e[C]ver had
[F]Some folks got a [C]bear beneath their [G]feet

[G]Some folks [Em]drive the bears out of the [C]wilderness
[F]Some to see a [C]bear would pay a [G]fee
[G]Me I just [Em]bear up to my bew[C]ildered best
[F]And some folks even [C]seen the bear in [G]me

BRIDGE (mandolin followed by dobro)

[G]Some folks [Em]drive the bears out of the [C]wilderness
[F]Some to see a [C]bear would pay a [G]fee
[G]Me I just [Em]bear up to my bew[C]ildered best
[F]And some folks even [C]seen the bear in [G]me

So [G]meet a bear and t[Em]ake him on out to [C]lunch with you
And [F]even though your f[C]riends may stop and s[G]tare
[G]Just remember that’s a bear [Em]there in the [C]bunch with you
[F]And they just don’t come no [C]better than a [G]bear

So [G]meet a bear and t[Em]ake him on out [C]to lunch with you
And [F]even though your f[C]riends may stop and s[G]tare
[G]Just remember that’s a bear [Em]there in the [C]bunch with you
[F]And they just don’t come no [C]better than a [G]bear

[F]No they just don’t come no b[C]etter than a b[G]ear
[F]No they just don’t come no b[C]etter than
[F]No they just don’t come no b[C]etter than
[F]No they just don’t come no b[C]etter that a [G]bear
—————–

If you wanna study Lyle Lovett Bears ukulele chords, the most crucial basic ukulele chords to learn are C chord, D chord, G chord, and Em chord. These set you up to play a a lot of songs, and each of them is easy to learn.

Btw, you may also search for another musical genres, including jazz ukulele chords, country music ukulele chords, pop ukulele chords, world music ukulele chords, and rock ukulele chords in this place.
Looking for another ukulele chords? Easy .. just use search button in this web, you can find it by song title or by the artist.
Have Fun!