Ascension in ukulele acoustic version maybe one of your loved music. Not only hearing the music but you can play “Ascension by Born of Osiris” using ukulele too. Yes .. this song by may also be played by that instrument. But, before that, you must know its ukulele chords.

Whether you are looking for Ascension ukulele chords, you’ve visit to the right website.

Yups, ukulele is not easy to master in the beginning, but gets easier the more time you stick with it. The more you practice, the easier ukulele will feel to play Ascension music.

“Ascension” ukulele chords has rhythm and included in “The Discovery (2011)” album.

Ascension by Born of Osiris ukulele Chords

[The Discovery]
[Born Of Osiris]

Tuning: GDGCFAD (Drop G)
[email protected]

the quiet part in the beginning is just the first two bars of riff 1.

[Riff 1, Guitar 1 & 2] – [00:09] – [00:29]


- -----------------------------------------------------------------|
- -----------------------------------------------------------------|
- -----------------------------------------------------------------|
- -----------------------------------------------------------------|
- -----------------------------------------------------------------|
- /6-----------------------6---------------6---------6-----6-------|
- -----0-0-0-0---0-0---0-0---0-0---0---0-0---0-0---0---0-0---0-0---|

PM ………………. …………. ……. … …
[-]


- -----------------------------------------------------------------|
- -----------------------------------------------------------------|
- -----------------------------------------------------------------|
- -----------------------------------------------------------------|
- -----------------------------------------------------------------|
- /3-----------------------3---------------3---------3-----3-------|
- -----0-0-0-0---0-0---0-0---0-0---0---0-0---0-0---0---0-0---0-0---|

PM ………………. …………. ……. … …


- -----------------------------------------------------------------|
- -----------------------------------------------------------------|
- -----------------------------------------------------------------|
- -----------------------------------------------------------------|
- -----------------------------------------------------------------|
- /6-----------------------6---------------6---------6-----6-------|
- -----0-0-0-0---0-0---0-0---0-0---0---0-0---0-0---0---0-0---0-0-0-|

PM ………………. …………. ……. … …..
[-]


- -----------------------------------------------------------------|
- -----------------------------------------------------------------|
- -----------------------------------------------------------------|
- -----------------------------------------------------------------|
- -----------------------------------------------------------------|
- /3-----------------------3---------------3---------3-----3-------|
- -----0-0-0-0---0-0---0-0---0-0---0---0-0---0-0---0---0-0---0-0-0-|

PM ………………. …………. ……. … …..


- -----------------------------------------------------------------|
- -----------------------------------------------------------------|
- -----------------------------------------------------------------|
- -----------------------------------------------------------------|
- -----------------------------------------------------------------|
- ---------6---------------6---------------6---------6-----6-------|
- -----0-0---0-0---0---0-0---0-0---0---0-0---0-0---0---0-0---0-0---|

PM … …………. …………. ……. … …
[-]


- -----------------------------------------------------------------|
- -----------------------------------------------------------------|
- -----------------------------------------------------------------|
- -----------------------------------------------------------------|
- -----------------------------------------------------------------|
- ---------3---------------3---------------3---------3-----3-------|
- -----0-0---0-0---0---0-0---0-0---0---0-0---0-0---0---0-0---0-0---|

PM … …………. …………. ……. … …


- -----------------------------------------------------------------|
- -----------------------------------------------------------------|
- -----------------------------------------------------------------|
- -----------------------------------------------------------------|
- -----------------------------------------------------------------|
- /6-----------------------6---------------6---------6-----6-------|
- -----0-0-0-0---0-0---0-0---0-0---0---0-0---0-0---0---0-0---0-0-0-|

PM ………………. …………. ……. … …..
[-]


- -----------------------------------------------------------------|
- -----------------------------------------------------------------|
- -----------------------------------------------------------------|
- -----------------------------------------------------------------|
- -----------------------------------------------------------------|
- /3-----------------------3---------------3---------3-----3-------|
- -----0-0-0-0---0-0---0-0---0-0---0---0-0---0-0---0---0-0---0-0-0-|

PM ………………. …………. ……. … …..


----------------------------------------------------------------------------
[Riff 2a, Guitar 1 & 2] - [00:29] - [00:48--------------------------| - [4x]
- -8~---------------------------------------------------------------|
- -8~----------------------------------------------6~---------------|
- -9~------------------------------------------9~--------9~---------|
- -10~---------------------------------------------------------7~---|
- -10~---------0~---------------------------------------------------|
- -8~----------0~---------------------------------------------------|
- -------------0~---------------------------------------------------|

[-]


- -8~----------------------------------------------13~-------------|
- -8~------------------------------------------17~-------17~-------|
- -9~----------------------------------------------------------14~-|
- -10~-------------------------------------------------------------|
- -10~---------0~--------------------------------------------------|
- -8~----------0~--------------------------------------------------|
- -------------0~--------------------------------------------------|
[Riff 2b] - [00:29] - [00:48----------------------------------------| - [2x]
- ------------------------------------------------------------------|
- --------------15------10----------------------15------10----------|
- ---------9/12----12\9----9---------------9/12----12\9----9--------|
- ---10/12-------------------10------10/12-------------------10-----|
- ------------------------------12------------------------------12--|
- -8-------------------------------8--------------------------------|
- ------------------------------------------------------------------|
- -----------------------------------------------------|
- --------------15--------------------------10---------|
- ---------9/12----12\9---------9---------9----9-------|
- ---10/12----------------10/12-----10/12--------10----|
- --------------------------------------------------12-|
- -8--------------------8---------8--------------------|
- -----------------------------------------------------|
- ------------------------------------------------------|
- --------------15-------------------15------10---------|
- ---------9/12----12\9---------9/12----12\9----9-------|
- ---10/12----------------10/12-------------------10----|
- ---------------------------------------------------12-|
- -8--------------------8-------------------------------|
- ------------------------------------------------------|
----------------------------------------------------------------------------
[Riff 3, Guitar 1 & 2] - [00:48] - [00:57---------------------------------| - [2x]
- ------------------------------------------------------------------------|
- -----------------------13------------------------13---------------------|
- ----------14------------------------14------------------------14--------|
- ---------------------10--10--------------------10--10-------------------|
- --------12--12--------------------12--12--------------------12--12------|
- ----------------------------------- -------------------------------------|
- -0h12-0-------0h12-0-------0h12-0-------0h12-0-------0h12-0-------0h13--|

PM . . . . .
[-]


- -----------------------12------------------------12--------------------|
- ----------13------------------------13------------------------13-------|
- ---------------------9---9---------------------9---9-------------------|
- --------10--10--------------------10--10--------------------10--10-----|
- -----------------------------------------------------------------------|
- -----------------------------------------------------------------------|
- -0h12-0-------0h12-0-------0h12-0-------0h12-0-------0h12-0-------0h13-|

PM . . . . .


[Riff 4, Guitar 1 & 2] - [00:57] - [01:07---------------------------------| - [2x]
- ------------------------------------12-----------15--15-------17--------|
- -----------------------13-----------------------------------------------|
- ----------14----------------------9---9--------12--12--12---14--14------|
- ---------------------10--10---------------------------------------------|
- --------12--12----------------------------------------------------------|
- ------------------------------------------------------------------------|
- -0h12-0-------0h12-0-------0h12-0-------0h12-0------------0-------0h13--|

PM . . . . .
[-]


- -----------------------12-----------15-----------17--17----------------|
- ----------13--------------------------------------------------13-------|
- ---------------------9---9--------12--12-------14--14--14--------------|
- --------10--10----------------------------------------------10--10-----|
- -----------------------------------------------------------------------|
- -----------------------------------------------------------------------|
- -0h12-0-------0h12-0-------0h12-0-------0h12-0------------0-------0h13-|

PM . . . . .

[Riff 4] – [01:07] – [01:08]


- -------------------|
- -------------------|
- -------------------|
- -------------------|
- -------------------|
- -------------------|
- -0h12p0-------0h12-|
----------------------------------------------------------------------------

[Riff 5] – [01:08] – [01:22]


- ---------------------------------------------------------|
- ---------------------------------------------------------|
- ---------------------------------------------------------|
- ---------------------------------------------------------|
- ---------------------------------------------------------|
- -------------3---------------3-----------3---3-----------|
- -0-0-0---0-0---0-0---0-0---0---0-0---0-0---0---0-0---0-0-|

PM ……….. …………. ……… . ………


- -----------------------------------------------------------------|
- -----------------------------------------------------------------|
- -----------------------------------------------------------------|
- -----------------------------------------------------------------|
- -----------------------------------------------------------------|
- -------------3---------------3-----------3---3-------------------|
- -0-0-0---0-0---0-0---0-0---0---0-0---0-0---0---0-0---0-0-----0-0-|

PM ……….. …………. ……… . ……………..


- -------------------------------------------------------------------------|
- -------------------------------------------------------------------------|
- -------------------------------------------------------------------------|
- -------------------------------------------------------------------------|
- -------------------------------------------------------------------------|
- -------------3-----------3---------------3---3---------------------------|
- -0-0-0---0-0---0-0---0-0---0-0-------0-0---0---0-0---0-0-----0-0---------|

PM ……….. ……… …………. . ……………..


----------------------------------------------------------------------------

[Riff 2a, Guitar 1 & 2 & Riff 2b] – [01:22] – [01:42]


----------------------------------------------------------------------------

[Riff 6] – [01:42] – [01:43]


- -----------------|
- -----------------|
- -----------------|
- -----------------|
- -----------------|
- -----------------|
- -0---0-0---------|

PM …….


[Riff 7, Guitar 1 & 2] - [01:43] - [01:53---------------------------| - [2x]
- ------------------------------------------------------------------|
- ------------------------------------------------------------------|
- ---10----1010----1010---------------------------------------------|
- ---x-----x-x-----x-x---------7-7-7-7-----------7------------------|
- ---8-----8-8-----8-8---------x-x-x-x-----------x------------------|
- -----------------------------5-5-5-5-----------5------------------|
- -0---0-0-----0-0-----0---0-0---------0-0---0-0---0---0-0---0-0----|

PM . … … . … … … . … …
[-]


- -----------------------------------------------------------------|
- -----------------------------------------------------------------|
- ---14----1414----1414--------------------------------------------|
- ---x-----x-x-----x-x---------10101010----------10----------------|
- ---12----1212----1212--------x-x-x-x-----------x-----------------|
- -----------------------------8-8-8-8-----------8-----------------|
- -0---0-0-----0-0-----0---0-0---------0-0---0-0---0---0-0---0-0---|

PM . … … . … … … . … …


[Riff 8, Guitar 1 & 2] - [01:53] - [02:02---------------------------| - [2x]
- ------------------------------------------------------------------|
- ------------------------------------------------------------------|
- ------------------------------------------------------------------|
- -----------------------------7-7-7-7-----------7------------------|
- -----------------------------x-x-x-x-----------x------------------|
- -----------------------------5-5-5-5-----------5------------------|
- -0---0-0-----0-0-----0---0-0---------0-0---0-0---0---0-0---0-0----|

PM . … … . … … … . … …
[-]


- -----------------------------------------------------------------|
- -----------------------------------------------------------------|
- -----------------------------------------------------------------|
- -----------------------------10101010----------10----------------|
- -----------------------------x-x-x-x-----------x-----------------|
- -----------------------------8-8-8-8-----------8-----------------|
- -0---0-0-----0-0-----0---0-0---------0-0---0-0---0---0-0---0-0---|

PM . … … . … … … . … …


----------------------------------------------------------------------------

[Riff 9, Guitar 1 & 2] – [02:02] – [02:21]


- -----------------------------------------------------------------|
- -----------------------------------------------------------------|
- -----------------------------------------------------------------|
- -----------------------------------------------------------------|
- -----------------------------------------------------------------|
- /9-----------------------6---------------6---------6-----6-------|
- -----0-0-0-0---------0-0---0-0---0---0-0---0-0---0---0-0---0-0---|

PM ………………. …………. ……. … …
[-]


- -----------------------------------------------------------------|
- -----------------------------------------------------------------|
- -----------------------------------------------------------------|
- -----------------------------------------------------------------|
- --------------- --------------------------------------------------|
- /6-----------------------3---------------3---------3-----3-------|
- -----0-0-0-0---0-0---0-0---0-0---0---0-0---0-0---0---0-0---0-0---|

PM ………………. …………. ……. … …


- -----------------------------------------------------------------|
- -----------------------------------------------------------------|
- -----------------------------------------------------------------|
- -----------------------------------------------------------------|
- -----------------------------------------------------------------|
- /6-----------------------6---------------6---------6-----6-------|
- -----0-0-0-0---0-0---0-0---0-0---0---0-0---0-0---0---0-0---0-0-0-|

PM ………………. …………. ……. … …..
[-]


- -----------------------------------------------------------------|
- -----------------------------------------------------------------|
- -----------------------------------------------------------------|
- -----------------------------------------------------------------|
- -----------------------------------------------------------------|
- /3-----------------------3---------------3---------3-----3-------|
- -----0-0-0-0---0-0---0-0---0-0---0---0-0---0-0---0---0-0---0-0-0-|

PM ………………. …………. ……. … …..


- -----------------------------------------------------------------|
- -----------------------------------------------------------------|
- -----------------------------------------------------------------|
- -----------------------------------------------------------------|
- -----------------------------------------------------------------|
- ---------6---------------6---------------6---------6-----6-------|
- -----0-0---0-0---0---0-0---0-0---0---0-0---0-0---0---0-0---0-0---|

PM … …………. …………. ……. … …
[-]


- -----------------------------------------------------------------|
- -----------------------------------------------------------------|
- -----------------------------------------------------------------|
- -----------------------------------------------------------------|
- -----------------------------------------------------------------|
- ---------3---------------3---------------3---------3-----3-------|
- -----0-0---0-0---0---0-0---0-0---0---0-0---0-0---0---0-0---0-0---|

PM … …………. …………. ……. … …


- -----------------------------------------------------------------|
- -----------------------------------------------------------------|
- -----------------------------------------------------------------|
- -----------------------------------------------------------------|
- -----------------------------------------------------------------|
- /6-----------------------6---------------6---------6-----6-------|
- -----0-0-0-0---0-0---0-0---0-0---0---0-0---0-0---0---0-0---0-0-0-|

PM ………………. …………. ……. … …..
[-]


- -----------------------------------------------------------------|
- -----------------------------------------------------------------|
- -----------------------------------------------------------------|
- -----------------------------------------------------------------|
- -----------------------------------------------------------------|
- /3-----------------------3---------------3---------3-----3-------|
- -----0-0-0-0---0-0---0-0---0-0---0---0-0---0-0---0---0-0---0-0-0-|

PM ………………. …………. ……. … …..

[Riff 10, Guitar 1 & 2] – [02:21] – [02:28]


- ---------------------------------|
- ---------------------------------|
- ---------------------------------|
- ---------------------------------|
- ---------------------------------|
- /6-----------------------6-------|
- -----0-0-0-0---------0-0---0-0---|

PM ………………. …
[-]


- ---------------------------------|
- ---------------------------------|
- ---------------------------------|
- ---------------------------------|
- ---------------------------------|
- /3-----------------------3-------|
- -----0-0-0-0---0-0---0-0---0-0---|

PM ………………. …


----------------------------------------------------------------------------

[Symbols]

PM… Palm Mute notes with (…) under them
/ Slide Up
\ Slide Down
h Hammer On
p Pull Off
x Dead Note
~ Let Ring

🙂
—————–

If you want to learn Born of Osiris Ascension ukulele chords, the most crucial basic ukulele chords to know are C chord, D chord, G chord, and Em chord. These set you up to play a many of songs, and each of them is easy to master.

Fyi, you may also look for another musical genres, including jazz ukulele chords, country music ukulele chords, pop ukulele chords, world music ukulele chords, and rock ukulele chords in this web site.
Want to play another ukulele chords? Simple .. just use search menu in this site, you can search it by song title or by the artist.
Have Fun!