As I Behold I Despise played in guitar might be one of the perfect song you loved. Not only hearing the music but you can play “As I Behold I Despise by Demigod” using guitar too. Yup .. this song by may also be played by that device. But, first thing, you need to know its guitar chords.

Whether you are looking for As I Behold I Despise guitar chords, you’ve come to the perfect page.

Yups, guitar is hard to learn in the beginning, but gets easier the longer you stick with it. The more you proceeding, the smooth guitar will feel to play the music.

“As I Behold I Despise” guitar chords has rhythm and included in “” album.

As I Behold I Despise by Demigod Guitar Chords

AS I BEHOLD I DESPISE – Demigod – Slumber of Sullen Eyes
Version 1.0 – July 2002
Transcribed by Lalith Vipulananthan ([email protected])

Tuning (Low to High) – B E A D F# B

Intro


|------------------|
|-44443333---------|
|---------5555--33-|
|-------------55---|

A1 [1] [2]


|--------------------------|----------|----------|
|-----3333--------44443333-|----------|----------|
|---------33332222---------|-5555--33-|----------|
|-2222---------------------|-----55---|-55550033-|

Repeat A1

A2 [1] [2]


|--------------------------|----------|----------|
|-----------------44443333-|----------|----------|
|---------33332222---------|-5555--33-|----------|
|-22222222-----------------|-----55---|-55550033-|

Repeat A2 x 2

B [1,4] [2,3]


|--------------------------4-3---------------------|----------------|----------------|
|-4---------4-5-4-5------------5-4---------4-5-4-5-|-------------5--|----------------|
|--------------------------------------------------|----------------|----------------|
|--2222222---------333333---------2222222----------|-3333333333-----|-33333333333333-|

……. …… ……. ………. …………..

Repeat A2 x 4

C Play 4 times


|----------------------------------------------------------------------|
|----------------------------------------------------------------------|
|-----------------332222------------------------------332222-----------|
|-2222222222222222------33220033222h3-2222222222222222------3322003333-|

Guitar 1


|-------------------------------------------------------------------|
|-------------------------------------------------------------------|
|-------------------------------------------------------9--10-------|
|--------------------------------/7-----------7---8-----------------|

|
| Guitar 2


|-----------------5-------------------------------5-----------------|
|-2---------------5---------------2---------------5-----------------|
|-2---------------3---------------2---------------3-----------------|
|-0-------------------------------0---------------------------------|

D1 Guitar 1


|------------------------------------|
|-------8-9-8----8-------------------|
|-7-----------10---------9-10---6----|
|------------------8-----------------|

|
| Guitar 2


|------------------5-----------------|
|-2----------------5-----------------|
|-2----------------3-----------------|
|-0----------------------------------|

Repeat D1 x 3

D2 [1-3] [4]


|------------------------|------------|----------|
|------------------------|------------|-------8--|
|---------112211--113333-|-------6666-|-4-5-4-6--|
|-00000000------33-------|-223322-----|-2-3-2-6--|

E1 Play twice


|-8-----8\4-----4/7-------7---4----|
|-8-----8\4-----4/7-------7---4----|
|-9-----9\5-----5/8-------8---5----|
|-9-----9\5-----5/8-------8---5----|
|-7-----7\3-----3/6-------6---3----|
|-7-----7\3-----3/6-------6---3----|

E2 Guitar 1


|-9-----9\5-----5/8-------8---5----|
|----------------------------------|
|----------------------------------|
|----------------------------------|

|
| Guitar 2


|-9-----9\5-----5/8-------8---5----|
|-9-----9\5-----5/8-------8---5----|
|-7-----7\3-----3/6-------6---3----|
|-7-----7\3-----3/6-------6---3----|

Repeat E2

E3 Guitar 1


|-12-----12\8-----8/11-------11---8----|
|--------------------------------------|
|--------------------------------------|
|--------------------------------------|

|
| Guitar 2


|-12-----12\8-----8/11-------11---8----|
|-12-----12\8-----8/11-------11---8----|
|-10-----10\6-----6/9--------9----6----|
|-10-----10\6-----6/9--------9----6----|

Repeat E3

Solo 1 Guitar 1


|----------------------------------------------------------------------------|
|----------------------------------------------------------------------------|
|------15-----------------16-15h16p15---------------16-15~~-----12-11~~------|
|-14------17-16----------------------17---13~~------------------------------|
|----------------15\-15------------------------------------------------------|
|----------------------------------------------------------------------------|

|
| Guitar 2


|----------------------------------------------------------------------------|
|----------------------------------------------------------------------------|
|-9--------------9\5------------------5/8--------------8------------5--------|
|-9--------------9\5------------------5/8--------------8------------5--------|
|-7--------------7\3------------------3/6--------------6------------3--------|
|-7--------------7\3------------------3/6--------------6------------3--------|

very quick downward slide

Solo 2 Guitar 2


|------------------------------------------------------------------------------------------------|
|-17-16p17h16----------------17-16p17h16----------------17-/20~~-----19~~-----17~~-----15~~------|
|-------------17-16----------------------17-16---------------------------------------------------|
|-------------------17-16-17-------------------17-16-17------------------------------------------|
|------------------------------------------------------------------------------------------------|
|------------------------------------------------------------------------------------------------|

|
| Guitar 1


|------------------------------------------------------------------------------------------------|
|-----------------------------------------------------------------------------------------------|
|-(5)-9----------------------9-\5---------------------5-/8--------------8------------5-----------|
|-(5)-9----------------------9-\5---------------------5-/8--------------8------------5-----------|
|-(3)-7----------------------7-\3---------------------3-/6--------------6------------3-----------|
|-(3)-7----------------------7-\3---------------------3-/6--------------6------------3-----------|

chord held over from backing to solo 1

F1 Guitar 1 – Left


|----------------------------------------------------------------|
|------------------------------------------------------------8---|
|----7-10------10----7-10----10-6----------------------------6-9-|
|-00------00-7----00------00-----------------------------------7-|

| .. .. .. ..
| Guitar 2 – Right


|----------------------------------------------------------------|
|----------------------------------------------------------------|
|------------------------------------7-10------10----7-10----6---|
|---------------------------------00------00-7----00------00---7-|

.. .. .. ..

Repeat F1 x 2

F2 Play 4 times


|----------------------------------------------------------------|
|------------------------------------------------------------8---|
|----7-10------10----7-10----10-6----7-10------10----7-10----6-9-|
|-00------00-7----00------00------00------00-7----00------00---7-|

.. .. .. .. .. .. .. ..

Repeat E1

Guitar 1


|-------------------------------------------------|
|---5-2---2-5---------------4-1---1-4---4-1---1-4-|
|-2-----2-------6-3---3-6-1-----1-----1-----------|
|-------------3-----3-----------------------3-----|

|
| Guitar 2


|-9-----------5---------5/8-----------8-----5-----|
|-9-----9-9-9-5---------5/8-----------8-----5-----||-7-----7-7-7-3---------3/6-----------6-----3-----|
|-7-----7-7-7-3---------3/6-----------6-----3-----|

. . .

E3 Guitar 1


|-------------------------------------------------|
|---5-2---2-5---------------4-1---1-4---4-1---1-4-|
|-2-----2-------6-3---3-6-1-----1-----1-----------|
|-------------3-----3-----------------------3-----|

|
| Guitar 2


|-9---------9\5---------5/8-----------8-----5-----|
|-9---------9\5---------5/8-----------8-----5-----|
|-7---------7\3---------3/6-----------6-----3-----|
|-7---------7\3---------3/6-----------6-----3-----|

Repeat E3

E4 Play twice


|-9-----9-9-9-5-----5-5-5-8-----8-8-8-8-----5-5-5-5-|
|-9-99999-9-9-5-55535-5-5-8-88888-8-8-8-88885-5-5-5-|
|-7-77777-7-7-3-33333-3-3-6-66666-6-6-6-66683-3-3-3-|
|-7-77777-7-7-3-33333-3-3-6-66666-6-6-6-66663-3-3-3-|

…. …. …. ….

Outro
|-8—-|
|-8—-|
|-9—-|
|-9—-|
|-7—-|
|-7—-|
.

The End!


-----------------------------------------------------------

Lalith Vipulananthan ([email protected])
Singularity Metal Tab (http://www.singularitymetaltab.net/)
—————–

If you want to learn Demigod As I Behold I Despise guitar chords, you need to understand the 5 major chords, C major, A major, G major, E major, and D major. The reason we use all major chords is that the minor versions of any of these chords only lack few adjustments. Every of those minor chords is completely based on its major counterpart.

For your info, you may also search for another musical genres, including jazz guitar chords, country music guitar chords, pop guitar chords, world music guitar chords, and rock guitar chords here.
Searching for another guitar chords? Easy .. just click search button in this site, you may search it by song title or by the artist.
Have Fun!