16 Psyche played in guitar might be one of the perfect song you loved. Not only hearing the song but you can play “16 Psyche by Chelsea Wolfe” using guitar too. Yeah .. this music by can also be played by that instrument. But, before that, you need to understand its guitar chords.

Whether you are looking for 16 Psyche guitar chords, you already visit to the best place.

Yups, guitar is not easy to learn in the beginning, but gets easier the more time you stick with it. The more you practice, the easier guitar will feel to play the song.

“16 Psyche” guitar chords has rhythm and included in “Hiss Spun (2017)” album.

16 Psyche by Chelsea Wolfe Guitar Chords

[Intro/Verse]


C|----------|----------------------------------------------------------------|
G|----------|----------------------------------------------------------------|
D|----------|----------------------------------------------------------------|
A|----------|----------------------------------------------------------------| (x10)
F|----------|----------------------------------------------------------------|
C|-0-0-2b-0-|--0-3-3-3b-2--------------------------------------------------------|

I’ve spent in different beds
Many moons
That’s the way I prefer it

[Chorus]


C|-----------------|-----------------|---------------------------------------|
G|-----------------|-----------------|---------------------------------------|
D|-----------------|-----------------|---------------------------------------|
A|-----------------|-----------------|---------------------------------------| (x3)
F|-5-5-5-5-5-5-5-5-|-2-2-2-2-2-2-2---|-7-7-7-7-7-7--5-5-5-5-5----------------|
C|-3-3-3-3-3-3-3-3-|-0-0-0-0-0-0-0---|-5-5-5-5-5-5--3-3-3-3-3----------------|

“I can’t,” she said
I’d save you
“I can’t hide”

[Verse]


C|----------|----------------------------------------------------------------|
G|----------|----------------------------------------------------------------|
D|----------|----------------------------------------------------------------|
A|----------|----------------------------------------------------------------| (x10)
F|----------|----------------------------------------------------------------|
C|-0-0-2b-0-|--0-3-3-3b-2----------------------------------------------------|

I feel it crawl up my legs
Let me wrazp you up in these thighs
Gets me out of my head again

[Chorus]


C|-----------------|-----------------|---------------------------------------|
G|-----------------|-----------------|---------------------------------------|
D|-----------------|-----------------|---------------------------------------|
A|-----------------|-----------------|---------------------------------------| (x3)
F|-5-5-5-5-5-5-5-5-|-2-2-2-2-2-2-2---|-7-7-7-7-7-7--5-5-5-5-5----------------|
C|-3-3-3-3-3-3-3-3-|-0-0-0-0-0-0-0---|-5-5-5-5-5-5--3-3-3-3-3----------------|

“I can’t,” she said
I’ll save you
“I can’t love”

[Verse]


C|----------|----------------------------------------------------------------|
G|----------|----------------------------------------------------------------|
D|----------|----------------------------------------------------------------|
A|----------|----------------------------------------------------------------| (x10)
F|----------|----------------------------------------------------------------|
C|-0-0-2b-0-|--0-3-3-3b-2----------------------------------------------------|

Sixteen psyche
Sixteen psyche
Coma tail quivering
I knew all along

[Chorus]


C|-----------------|-----------------|---------------------------------------|
G|-----------------|-----------------|---------------------------------------|
D|-----------------|-----------------|---------------------------------------|
A|-----------------|-----------------|---------------------------------------| (x3)
F|-5-5-5-5-5-5-5-5-|-2-2-2-2-2-2-2---|-7-7-7-7-7-7--5-5-5-5-5----------------|
C|-3-3-3-3-3-3-3-3-|-0-0-0-0-0-0-0---|-5-5-5-5-5-5--3-3-3-3-3----------------|

“I can’t,” she said
I’d save you
“I can’t,” she said
“I’d save you but the world’s bent,” she said
I’d save you
“I can’t”
—————–

If you want to study Chelsea Wolfe 16 Psyche guitar chords, you need to look at the 5 major chords, C major, A major, G major, E major, and D major. The reason we take all major chords is that the minors of any of these chords just lack few adjustments. Each one of those minor chords is entirely based on its major counterpart.

By the way, you may also look for another musical genres, including jazz guitar chords, country music guitar chords, pop guitar chords, world music guitar chords, and rock guitar chords in this website.
Wanna play another guitar chords? Simple .. just use search button in this site, you may find it by song title or by the artist.
Enjoy!